Между ад и рай


Изпълнител: Сигнал

Изпратил: master_night

Intro:
e|------------------------------------------------------------0--3--1--0----|
B|-------1-------1-------1-------0h1----------1-------3-----3----1----------|
G|-----2-------2-------2-------2----2-------2-------0------------2----------|
D|---2-------2-------2-------0-------3----2-------0-------2------3----------|
A|-0------------------------------------0-------2-------3-------------------|
E|---------3-------2-------1------------------------------------------------|


file
e|--------------------------------------------------------------------0-----|
B|-------1-------1-------1-------0h1----------1-------1-------1-------1-----|
G|-----2-------2-------2-------2----2-------2-------2-------2-------2---2---|
D|---2-------2-------2-------0-------3----2-------2-------2-------0------3--|
A|-0------------------------------------0-----------------------------------|
E|---------3-------2-------1--------------------3-------2-------1-----------|

e|--------------------------------------------------------------------0-----|
B|-------1-------1-------1-------0h1----------1-------1-------1--------1----|
G|-----2-------2-------2-------2----2-------2-------2-------2-------2---2---|
D|---2-------2-------2-------0-------3----2-------2-------2-------0---------|
A|-0------------------------------------0-----------------------------------|
E|---------3-------2-------1--------------------3-------2-------1-----------|

file
Не е лесно да се срещнем днес
знам годините летят.
Приближават дните есенни и се променя този свят.

Fm
Отива си нещо,
Bb                   Cm
ще можем ли да задържим
     Bb/B    Bb  E
шепа пясък или дим
Cm       A
Отива си нещо
Gsus4    Gm7     G7
сами по своя път вървим.

e|-----------------------0--3--1--0--|
B|-------1-------3-----3----1--------|
G|-----2-------0------------2--------|
D|---2-------0-------2------3--------|
A|-0-------2-------3-----------------|
E|-----------------------------------|

file
Не е лесно да се срещнем днес,
но нали в един живот
трябва ни поне една любов
затова пак вървим.

Fm             Bb              Cm
По пътя отново шепа пясък или дим
        Bb/B            E
опитваме за миг да задържим
Cm       A      Gm
понякога губим, но няма да се променим.


Припев: 
      E      Bb
Между ад или рай
       Fm           Cm
влакът просто продължава
  A            Bb      E     Fm,Gm,Bb
и всяка спирка е една любов.
      E          Bb        Fm      Cm
Ще вървим ли докрай още колкото остава
A             Bb        Cm     Bb
единствен миг или един живот.

соло:
A,Bb,Gm,Cm,A,Bb,Cm
A,Bb,Gm,Cm,A,Bb,Cm,Bb

По пътя отново шепа пясък или дим
опитваме за миг да задържим
понякога губим, но няма да се променим.

Припев: Между ад или рай
влакът просто продължава
и всяка спирка е една любов.
Ще вървим ли докрай още колкото остава
единствен миг или един живот. /x2

Може би ше се намерим днес

акорди за китара

акорди за пиано

видео клип


© 2007-2020 akordite.com - Акорди и таблатури на български песни