Йовано Йованке


Изпълнител: Куку бенд и Слави Трифонов

Изпратил: Jacsons

Intro       

D--D-D-D-- x4

E--/8-----------------------------/8-------------------------
B------11--10--8--7-8--7-8-10--------11--10--8--7--8--7------        x2
G------------------------------------------------------8-7---

D7 Cm D7  Gm D
Йовано, Йованке,
Gm           Cm
Край Вардаро седиш мори,
F           Bb
бело платно белиш
Gm          Cm
Все нагоре гледаш душо,
          D7 Cm D
Сърце мое Йовано.

Intro

Йовано, Йованке,
яз те тебе чекам мори,
дома да ми дойдеш
а ти не довадяш душо,
сърце мое Йовано.

Solo
E-/6--6--6--6-5-6-8--8-6--/5--5--5--5-3-5-6--/3--3-3--5-6-6/8--6-5--3-

E--5-3-2-5-2-3-5-2--5-3-2------------------2-3---3/6--6-6-6-
B------------------------4-3-3---------3-4-------------------
G---------------------------------5-4-5------------------------

E-6-5-6-8--8-6--/5--5--5--5-3-5-6--/3--3-3--5-6-6/8--6-5--3-

E--5-3-2-5-2-3-5-2--5-3-2--------------------
B------------------------4-3-3---------3---
G---------------------------------5-4-5-----

Йовано, Йованке,
твоята майка мори,
тебе не те пуща,
кай мене да дойдеш душо,
сърце мое, Йовано.

D7  D
Йовано   x4 

(Вместо аранжимента на Куку бенд предлагам соло близко до автентичния отсвир в съответната тоналност)
Мнения на yakimov.bnt.sng@mail.bg


акорди за китара

акорди за пиано

видео клип


© 2007-2023 akordite.com - Акорди и таблатури на български песни