[Всички песни]
[Покажи Акордите]
[Редактирай песента]

Печат
Гама
Am : Em : Bm : F#m : C#m : G#m : D#m : A#m : Dm : Gm : Dm : Fm : Bbm : Ebm : Abm

Тих бял дунав / Радецки


Изпълнител: -
Текст: Иван Вазов
Изпратил: Backo1
Редакция: georgimet

Тих бял Дунав се вълнува,
весело шуми
и “Радецки” гордо плува
над златни вълни и-и-и.
и “Радецки” гордо плува
над златни вълни

Но кога се там съзирва
козлодуйски бряг,
в парахода рог изсвирва,
развя се байряк.

Млади български юнаци
явяват се там,
на чела им левски знаци,
в очите им плам.

Горд Ботев там застана
младият им вожд –
па си дума капитану,
с гол в  ръката нож:

-Аз съм български войвода,
момци ми са тез;
ний летиме за свобода,
кръв да лейме днес.

Ний летиме на България
помощ да дадем
и от тежка тирания
да я отървем.


Таблатури - Александър Кирилов

e---------------------------------
---------------------------------
--------------------------------- x2
--0--2--3-----0--2--3------------
-----------0~----------0~--------
E---------------------------------
Тих бял Дунав...

e---------------------------------
----------1--0-------------------
--2--2p0-------2~----------------
---------------------------------
---------------------------------
E---------------------------------
Весело шуми


e---------------------------------
---------------------------------
--2--2--0--2p0-------------------
----------------3--3--2--0-------
---------------------------------
E---------------------------------
..и Радецки


e---------------------------------
---------------------------------
--2--(2)--0-------------------0--
-------------3--2--0---0h2h3-----
---------------------------------
E---------------------------------
..по златни вълни

e---------------------------------
---------------------------------
--2--2--0--2p0-------------------
----------------3--3--2--0-------
---------------------------------
E---------------------------------

e---------------------------------
---------------------------------
--2--(2)--0----------------------
-------------3--2--0-------------
---------------------------------
E---------------------------------

e---------------------------------
---------------------------------
---------------------------------
--0--00-2-3--------0--00-2-3-----
------------0-0-0------------0~--
E---------------------------------
Но кога се там съзира..

акорди за китара

акорди за пиано

видео клип


© 2007-2020 akordite.com - Акорди и таблатури на български песни

Вход






Забравена парола
Нямате достъп?
Регистрирайте се!!!

Статистика

Песни: 1639
Потребители: 15100

В момента онлайн:

2 госта и 1 потребител
  • atanaseatanasov