[Всички песни]
[Покажи Акордите]
[Редактирай песента]

Печат
Гама
C : G : D : A : E : B : F# : C# : F : Bb : Eb : Ab : Db : Gb

Македонско девойче


Изпълнител: Народни песни
Текст: Народни песни
Музика: Народни песни
Албум: Народни песни
Изпратил: Krasen


http://forum.muzikant.org/index.php?showtopic=69497

TP    TP            TP       TP          TP         TP    TP
E  E  E  Q    E  E     E  E  E  H           Q    E  E  E  E  E
E||----------------------|--------------------|----------------------|
B||----------------------|--------------------|----------------------|
G||----------------2--0--|--0--2--0--0--------|----------------0-----|
D||--2--3--2--0----------|--------------------|----------2--3-----3--|
A||----------------------|--------------------|--3----3--------------|
E||----------------------|--------------------|----------------------|


TP     TP             TP            TP      TP   TP
Q    E  Q.     E     E  E  E  Q    E  E     Q    E  Q    E  E
--------------------|----------------------|---------------------|
--------------------|----------------------|---------------------|
--0-----------------|----------------2--0--|--2----0--0-------0--|
-------3--3---------|--3--2--0--0----------|---------------3-----|
-----------------3--|----------------------|---------------------|
--------------------|----------------------|---------------------|


Ма   ке дон  ско
Ко   га пе   сен
Ко   га ко   си
TP      TP            TP
Q    E  Q    E  E     Q.     H           Q    E  Q    Q
---------------------|------------------|--------------------|
---------------------|------------------|-------3--1----3----|
--2------------------|------------------|--------------------|
-------2--3----2--0--|--0---------------|--0-----------------|
---------------------|------------------|--------------------|
---------------------|------------------|--------------------|


де   вой че,         кит  ка  ша   ре      на.
за   пе  е,          сла  вей над  пее     е.
раз  пле те,         ко   си  ко   при     на.
Q    E   H           Q    E   Q    Q       Q.     H
--------------------|---------------------|------------------|
--1----3------------|---------------------|------------------|
-----------2--------|--3----2---0----3----|--2---------------|
--------------------|---------------------|------------------|
--------------------|---------------------|------------------|
--------------------|---------------------|------------------|


Во   гра ди   на      рас  на  ла,         дар  по  дар  е
Ко   га  хо   ро      за   иг  ра,         су   це  раз  иг
Лич  на  си   ми      по   лич на,         от   сам о    ди
Q    E   Q    Q       Q    E   H           Q    E   Q    Q
---------------------|--------------------|---------------------|
-------3---1----3----|--1----3------------|---------------------|
---------------------|-----------2--------|--3----2---0----3----|
--0------------------|--------------------|---------------------|
---------------------|--------------------|---------------------|
---------------------|--------------------|---------------------|


на.                  Да     а      ли    и    и  ма
Не     е      ма    не   е  ма
ра.
ва.
Q.     H             Q.     Q.     E     Q    E  H
------------------||--------------------|-------------------|
------------------||---3-------------1--|-------------------|
--2---------------||*---------2---------|--3----2--0--------|
------------------||*-------------------|-------------------|
------------------||--------------------|-------------------|
------------------||--------------------|-------------------|


ов   ой бе   ли      свят               по   ху ба   во
не   ке се   ро      ди,                по   ху ба   во
Q    E  Q    Q       Q.     H           Q    E  Q    Q
--------------------|------------------|--------------------|
--------------------|------------------|--------------------|
--3----2--0----3----|--2---------------|--3----2--0----3----|
--------------------|------------------|--------------------|
--------------------|------------------|--------------------|
--------------------|------------------|--------------------|


де   вой че           от   ма ке   дон     че.
де   вой че           от   ма ке   дон     че.
Q    E   Q    Q       Q    E  Q    Q       Q.     H
---------------------|--------------------|-------------------||-----------||
---------------------|--------------------|-------------------||-----------||
--2----0-------------|--2----0------------|------------------*||-----------||
-----------3---------|----------3----2----|--0---------------*||-----------||
---------------------|--------------------|-------------------||-----------||
---------------------|--------------------|-------------------||-----------|

акорди за китара

акорди за пиано

видео клип


© 2007-2020 akordite.com - Акорди и таблатури на български песни

Вход






Забравена парола
Нямате достъп?
Регистрирайте се!!!

Статистика

Песни: 1745
Потребители: 15913

В момента онлайн:

20 госта