[Всички песни]
[Скрий Акордите]
[Редактирай песента]

Печат
Гама
Am : Em : Bm : F#m : C#m : G#m : D#m : A#m : Dm : Gm : Dm : Fm : Bbm : Ebm : Abm

Майце си


Изпълнител: Епизод

Изпратил: ivancho6 

  Intro: Dm x5 A Dm x2 /^2

 (Solo)
 E----5-6--5------------5-5-6-5-----------5-6-5---------------------
 B-------------8--6--8----------8-6-5-----------8-6-5-8-6-5-6-5-----
 G------------------------------------7-------------------------5--7 (x2)






[Dm]            [A]          [Dm]
Ти ли си, мале, тъй жално пела,
 [Dm]          [Gm]          [A]
 ти ли си мене три години клела,
 [A]              [Bb]
та скитник ходя злочестен ази 
        [Gm]
и срещам туй, що душата мрази?

 Бащино ли съм пропил имане,
 теб ли покрих с дълбоки рани, 
та мойта младост, мале, зелена,
 съхне и вехне люто ранена?
 
[Bb] [A]            [Dm]
 Ех, майко, майчице... 

  Solo:

   Dm      Dm     Dm       Dm    Dm    A    Dm      Dm
 E----5-6--5------------5-5-6-5-----------5-6-5---------------------
 B-------------8--6--8----------8-6-5-----------8-6-5-8-6-5-6-5-----
 G------------------------------------7-------------------------5--7 (x1)


Освен теб, мале, никого нямам,
 ти си за мене лююбов и вяра;
 но тука вече не се надявам 
нещо да любя: сърце догаря! 

Много аз, мале, много мечтаех
 щастие, слава да видим двама,
 сила усещах - що не желаех? 
Но за тез жалби приготви яма! 

Ех, майко, майчице... (2)

Solo:

   Dm      Dm     Dm       Dm    Dm    A    Dm      Dm
 E----5-6--5------------5-5-6-5-----------5-6-5---------------------
 B-------------8--6--8----------8-6-5-----------8-6-5-8-6-5-6-5-----
 G------------------------------------7-------------------------5--7 (x1)

 Само ти, клета, една остана:
 в прегръдки твои мили да падна. 
сърцето младо. душата страдна 
да се оплачат на тебе, мамо... 

Татко и сестрици и братя мили 
аз да прегърна искам без злоба, 
нека тогава измръзнат жили,
нека тогава изгния в гроба! 

Ех, майко, майчице... (2)



акорди за китара

акорди за пиано

видео клип


© 2007-2020 akordite.com - Акорди и таблатури на български песни

Вход






Забравена парола
Нямате достъп?
Регистрирайте се!!!

Статистика

Песни: 1742
Потребители: 15345

В момента онлайн:

4 госта