[Всички песни]
[Скрий Акордите]
[Редактирай песента]

Печат
Гама
C : G : D : A : E : B : F# : C# : F : Bb : Eb : Ab : Db : Gb

Химн на Република България


Изпълнител: -

Изпратил: peisyrce@yahoogroups.com


E||---5-5-7-8-7-5------5-5-7-8-7-5------5-5-7-10-8-7-5-4-5-4--
B||-5-----------------5------------------5--------------------
G||-----------------------------------------------------------
D||-----------------------------------------------------------
A||-----------------------------------------------------------
E||-----------------------------------------------------------


E||------4-5--7--8--10----12-10-8--10-12-----10-8--7--5-8--12- 
B||--6-5------------------------------------------------------ 
G||----------------------------------------------------------- 
D||----------------------------------------------------------- 
A||----------------------------------------------------------- 
E||----------------------------------------------------------- 


E||----10-8--7--5-4-5-4---------4-5--
B||---------------------6-5-6-5------
G||----------------------------------
D||----------------------------------
A||----------------------------------
E||---------------------------------

акорди за китара

акорди за пиано

видео клип


© 2007-2017 akordite.com - Акорди и таблатури на български песни

Вход






Забравена парола
Нямате достъп?
Регистрирайте се!!!

Последни песни



Статистика

Песни: 1411
Потребители: 12754

В момента онлайн:

1 гост