[Всички песни]
[Скрий Акордите]
[Редактирай песента]

Печат
Гама
C : G : D : A : E : B : F# : C# : F : Bb : Eb : Ab : Db : Gb

Хей момиче


Изпълнител: БТР


                                                                        
E||----------0---------------0-------|----------0---------------0------|
B||------3-----3---3-----3-----3---3-|------3-----3---3-----3-----3----|
G||----2---2-----2-----2---2-----2---|----2---2-----2-----2---2-----2--|
D||--0---------------0---------------|---------------------------------|
A||----------------------------------|--2---------------2--------------|
E||----------------------------------|---------------------------------|


                                                                     
----------0---------------0-------|----------0-------3-0---2--0-----|
------3-----3---3-----3-----3-----|--------2---2---------2------2---|
----0---0-----0-----0---0-----0---|------2-------2----------------2-|
--------------------------------0-|----2-----------2----------------|
----------------------------------|--0------------------------------|
--3---------------3---------------|---------------------------------|


                                                                      
----------0---------------0-------|----------0---------------0-------|
------3-----3---3-----3-----3---3-|------3-----3---3-----3-----3---3-|
----2---2-----2-----2---2-----2---|----2---2-----2-----2---2-----2---|
--0---------------0---------------|----------------------------------|
----------------------------------|--2---------------2---------------|
----------------------------------|----------------------------------|


                                                                    
----------0---------------0-------|----------0-------0-----0-------|
------3-----3---3-----3-----3-----|--------2---2-------2------2----|
----0---0-----0-----0---0-----0---|------2-------2-------2------2--|
--------------------------------0-|----2-----------2---------------|
----------------------------------|--0-----------------------------|
--3---------------3---------------|--------------------------------|


                                                                      
----------0---------------0-------|----------0---------------0-------|
------3-----3---3-----3-----3---3-|------3-----3---3-----3-----3---3-|
----2---2-----2-----2---2-----2---|----2---2-----2-----2---2-----2---|
--0---------------0---------------|----------------------------------|
----------------------------------|--2---------------2---------------|
----------------------------------|----------------------------------|


                                                                     
----------0---------------0-------|----------0-------3-0---2--0-----|
------3-----3---3-----3-----3-----|--------2---2---------2------2---|
----0---0-----0-----0---0-----0---|------2-------2----------------2-|
--------------------------------0-|----2-----------2----------------|
----------------------------------|--0------------------------------|
--3---------------3---------------|---------------------------------|


                                                                      
----------3---------------0-------|----------3---------------0-------|
------0-----0---0-------2---2-----|------0-----0---0-------2---2-----|
----0---0-----0-------2-------2---|----0---0-----0-------2-------2---|
--------------------2-----------2-|--------------------2-----------2-|
------------------0---------------|------------------0---------------|
--3-------------------------------|--3-------------------------------|


                                                         
----------3-------------------2---|--2---0----3---------|
------0-----0---0-------2-------2-|--3---2----0---------|
----0---0-----0-------2-----3-----|--4---2----0---------|
--------------------2-----4-------|--4---2----0---------|
------------------0---------------|--2---0----2---------|
--3-------------------------------|-----------3---------|


                                                                      
----------0---------------0-------|----------0---------------0-------|
------3-----3---3-----3-----3---3-|------3-----3---3-----3-----3---3-|
----2---2-----2-----2---2-----2---|----2---2-----2-----2---2-----2---|
--0---------------0---------------|----------------------------------|
----------------------------------|--2---------------2---------------|
----------------------------------|----------------------------------|


                                                                     
----------0---------------0-------|----------0-------3-0---2--0-----|
------3-----3---3-----3-----3-----|--------2---2---------2------2---|
----0---0-----0-----0---0-----0---|------2-------2----------------2-|
--------------------------------0-|----2-----------2----------------|
----------------------------------|--0------------------------------|
--3---------------3---------------|---------------------------------|


                                                                      
----------0---------------0-------|----------0---------------0-------|
------3-----3---3-----3-----3---3-|------3-----3---3-----3-----3---3-|
----2---2-----2-----2---2-----2---|----2---2-----2-----2---2-----2---|
--0---------------0---------------|----------------------------------|
----------------------------------|--2---------------2---------------|
----------------------------------|----------------------------------|


                                                                      
----------0---------------0-------|----------0---------------0-------|
------3-----3---3-----3-----3-----|--------2---2-----------2---2-----|
----0---0-----0-----0---0-----0---|------2-------2-------2-------2---|
--------------------------------0-|----2-----------2---2-----------2-|
----------------------------------|--0---------------0---------------|
--3---------------3---------------|----------------------------------|


                                                                      
----------3---------------0-------|----------3---------------0-------|
------0-----0---0-------2---2-----|------0-----0---0-------2---2-----|
----0---0-----0-------2-------2---|----0---0-----0-------2-------2---|
--------------------2-----------2-|--------------------2-----------2-|
------------------0---------------|------------------0---------------|
--3-------------------------------|--3-------------------------------|


                                                             
----------3-------------------2---|--2---0----3-----3-3-3-3-|
------0-----0---0-------2-------2-|--3---2----0-----3-3-3-3-|
----0---0-----0-------2-----3-----|--4---2----0-----0-0-0-0-|
--------------------2-----4-------|--4---2----0-----0-0-0-0-|
------------------0---------------|--2---0----2-------------|
--3-------------------------------|-----------3-------------|


                                                                      
----------3---------------0-------|----------3---------------0-------|
------0-----0---0-------2---2-----|------0-----0---0-------2---2-----|
----0---0-----0-------2-------2---|----0---0-----0-------2-------2---|
--------------------2-----------2-|--------------------2-----------2-|
------------------0---------------|------------------0---------------|
--3-------------------------------|--3-------------------------------|


                                                         
----------3-------------------2---|--2---0----3---------|
------0-----0---0-------2-------2-|--3---2----3---------|
----0---0-----0-------2-----3-----|--4---2----0---------|
--------------------2-----4-------|--4---2----0---------|
------------------0---------------|--2---0----2---------|
--3-------------------------------|-----------3---------|


                                                                 
-------0-------0-------0-------|--0-------0-------0-------0--0--|
--0------0-------0-------0-----|--2-2-------2-------2-----2--2--|
--2--------2-------2-------2---|--2---2-------2-------2---2--2--|
--2----------2-------2-------2-|--2-----2-------2-------2-2--2--|
--0----------------------------|--0-----------------------------|
-------------------------------|--------------------------------|


                                                                      
----------0---------------0-------|----------0---------------0-------|
------3-----3---3-----3-----3---3-|------3-----3---3-----3-----3---3-|
----2---2-----2-----2---2-----2---|----2---2-----2-----2---2-----2---|
--0---------------0---------------|----------------------------------|
----------------------------------|--2---------------2---------------|
----------------------------------|----------------------------------|


                                                                     
----------0---------------0-------|----------0-------3-0---2--0-----|
------3-----3---3-----3-----3-----|--------2---2---------2------2---|
----0---0-----0-----0---0-----0---|------2-------2----------------2-|
--------------------------------0-|----2-----------2----------------|
----------------------------------|--0------------------------------|
--3---------------3---------------|---------------------------------|


                                                                      
----------0---------------0-------|----------0---------------0-------|
------3-----3---3-----3-----3---3-|------3-----3---3-----3-----3---3-|
----2---2-----2-----2---2-----2---|----2---2-----2-----2---2-----2---|
--0---------------0---------------|----------------------------------|
----------------------------------|--2---------------2---------------|
----------------------------------|----------------------------------|


                                                                    
----------0---------------0-------|----------0-------0-----0-------|
------3-----3---3-----3-----3-----|--------2---2-------2------2----|
----0---0-----0-----0---0-----0---|------2-------2-------2------2--|
--------------------------------0-|----2-----------2---------------|
----------------------------------|--0-----------------------------|
--3---------------3---------------|--------------------------------|


                                                                      
----------3---------------0-------|----------3---------------0-------|
------0-----0---0-------2---2-----|------0-----0---0-------2---2-----|
----0---0-----0-------2-------2---|----0---0-----0-------2-------2---|
--------------------2-----------2-|--------------------2-----------2-|
------------------0---------------|------------------0---------------|
--3-------------------------------|--3-------------------------------|


                                                             
----------3-------------------2---|--2---0----3-----3-3-3-3-|
------0-----0---0-------2-------2-|--3---2----0-----3-3-3-3-|
----0---0-----0-------2-----3-----|--4---2----0-----0-0-0-0-|
--------------------2-----4-------|--4---2----0-----0-0-0-0-|
------------------0---------------|--2---0----2-------------|
--3-------------------------------|-----------3-------------|


                                                                      
----------3---------------0-------|----------3---------------0-------|
------0-----0---0-------2---2-----|------0-----0---0-------2---2-----|
----0---0-----0-------2-------2---|----0---0-----0-------2-------2---|
--------------------2-----------2-|--------------------2-----------2-|
------------------0---------------|------------------0---------------|
--3-------------------------------|--3-------------------------------|


                                                         
----------3-------------------2---|--2---0----3---------|
------0-----0---0-------2-------2-|--3---2----0---------|
----0---0-----0-------2-----3-----|--4---2----0---------|
--------------------2-----4-------|--4---2----0---------|
------------------0---------------|--2---0----2---------|
--3-------------------------------|-----------3---------|


                                                                      
--3-------0-------2-------2-------|--0-------0-------2-------2-------|
--1---1-----1---1-3---3-----3---3-|--1---1-----1---1-3---3-----3---3-|
--0-0---0-----0---2-2---2-----2---|--0-0---0-----0---2-----2-----2---|
--2---------------0---------------|--2---------------4-4-------------|
--3-------------------------------|------------------0---------------|
----------------------------------|----------------------------------|


                                                            
--0-------0-------2-2-2--2-2-2--|--0---2----0-0----0-------|
--1---1---1-1---1-3-3-3--4-4-4--|--0---3----1-1----1---1---|
--0-0---0-0---0---2-2-2--2-2-2--|--0---2----0-0----0-----3-|
--2---------------4-4-4--4-4-4--|--2---0----2-2----2-3-----|
--3----------------------2-2-2--|--2---0----3-3----3-------|
--------------------------------|--0-----------------------|


                                                      
--0--0--0--0--2--2--2--2--|--3--3--3--3--5--5--5--5--|
--1--1--1--1--3--3--3--3--|--1--1--1--1--3--3--------|
--0--0--0--0--2--2--2--2--|--0--0--0--0--2--2--7--7--|
--2--2--2--2--0--0--0--0--|--2--2--2--2--0--0--7--7--|
--3--3--3--3--------------|--3--3--3--3--------5--5--|
--------------------------|--------------------------|


                                                                       
--0--0--0--0--2--2--2--2--|--0---2----0---------|--0---2----0---------|
--1--1--1--1--3--3--4--4--|--0---3----1---------|--0---3----1---------|
--0--0--0--0--2--2--2--4--|--0---2----0---------|--0---2----0---------|
--2--2--2--2--0--0--4--4--|--2---0----2---------|--2---0----2---------|
--3--3--3--3--------2--2--|--2---0----3---------|--2---0----3---------|
--------------------------|--0------------------|--0------------------|


                                                     
--0---2----0---------|------------------|----------||
--0---3----1---------|------------------|----------||
--0---2----0---------|------------------|----------||
--2---0----2---------|------------------|----------||
--2---0----3---------|------------------|----------||
--0------------------|------------------|----------||

Помниш ли старата върба 
там откривахме света 
а мечтите ни изглеждаха реални 
Твоят ден сега е уморен 
погледът ти е така студен 
вярата стопи се в забрава 
Книгите с прах покрити 
а мечтите са дълбоко скрити 
как обърка се живота 
така и не разбра 
Сега вървиш по пътя си 
очите пълни със сълзи 
може би заради несбъднати мечти 
Работиш в бар сред хора хиляди 
денят започва в зори 
а ти реши че всичко е пари 
Хей момиче ти кажи 
че не всичко е пари 
как обърка се живота 
така е не разбра 
Хей момиче разбери 
не всичко е пари 
кой обърка ти живота така и не разбра 
Ти момиче му кажи 
остани или си върви


акорди за китара

акорди за пиано

© 2007-2017 akordite.com - Акорди и таблатури на български песни

Вход






Забравена парола
Нямате достъп?
Регистрирайте се!!!

Последни песни



Статистика

Песни: 1411
Потребители: 12547

В момента онлайн:

21 госта и 1 потребител
  • todorovsof