[Всички песни]
[Покажи Акордите]
[Редактирай песента]

Печат
Гама
C : G : D : A : E : B : F# : C# : F : Bb : Eb : Ab : Db : Gb

Грешница


Изпълнител: Сигнал
Текст: Йордан Караджов
Музика: Йордан Караджов
Албум: Сигналистика
Изпратил: Антон Забунов, antonaz@techno-link.com


интро:

1 и 2 куплет:


Пр:


1. Не, не ме боли,
отдавна грешница си ти,
не плачи, нямам вяра на сълзи...


2. И прошка как да дам,
когато лъжеш ти без срам-
не плачи, нямам вяра на сълзи...


Пр: В мига на раздяла
тихо ме целуваш
и какво от това,
оставаш грешница сама...


3. Не, не се кръсти,
а само себе си вини
не плачи, нямам вяра на сълзи...


4. Превърна в грях и нощ и ден...
в грях превърна даже мен
не плачи, нямам вяра на сълзи...


вибрато            вибрато
1---------------------------5-7-5------------
2-5-555---787-------8-888--------5--------------------
3-------------84----------------------------

вибрато                    вибр
3----------0-----0-2-00-2-4-2-----------------------
4-2-222--4---4-4-----------------------------------


вибрато
3-----------0---------------------------
4--2-222--4---4-1-----------------------------
5-----------------2---------------------


вибрато
3-0-000--2-4-2---------------0----0 2-0-0-24-2-----------------------
4--------------2-(1)-2-222 4---44------------------------------------



Това е един от най великите блусове на Сигнал. Изключително е
чувството
когато свириш подобни "тежки" балади. Постарал съм се да напиша и
солото с
възможно най-точните тонове. Все пак ако имате забележки пишете.
Отворен
съм за критики.



акорди за китара

акорди за пиано

© 2007-2017 akordite.com - Акорди и таблатури на български песни

Вход






Забравена парола
Нямате достъп?
Регистрирайте се!!!

Последни песни



Статистика

Песни: 1527
Потребители: 14336

В момента онлайн:

3 госта