[Всички песни]
[Скрий Акордите]
[Редактирай песента]

Печат
Гама
C : G : D : A : E : B : F# : C# : F : Bb : Eb : Ab : Db : Gb

Един прятел


Изпълнител: Слави Трифонов

Албум: Vox Populi
Изпратил: Petko Aleksandrov Gladiatora_alex@bitex.bg


Intro:


E----3------3----3---2-----2----2-----------------------------------
B--------3-----3---------3-----3---5-------2---2---5----5------2---2
G-------2------2--------2------2----------4----4-----4---------4---4                    
D----0---------------0-------------------2-----2------2-------2----2
A------------------------------------0---------------------0---------
E--------------------------------------------------------------------


E----3------3----3---2-----2----2------------------------------------
B---------3-----3---------3-----3---5-------2---2---5----5------2--2-
G-------2------2--------2------2----------4----4-----4---------4--4--  
D----0---------------0-------------------2-----2------2-------2----2
A------------------------------------0---------------------0---------


E----3------3----3---2-----2----2------------------------------------
B---------3-----3---------3-----3------------------------------------
G-------2------2--------2------2-------------------------------------
D----0---------------2-----------------------------------------------
A--------------------------------------------------------------------
E--------------------------------------------------------------------

Куплет:

E----------------------------------------(2)--------2-----(2)---2----
B-------(2)------2------(2)-----2----------------2----3---------2---3
G--------------4----2---------4---2----------2-----------------2-----
D-----------2---------------2------------0------------------0--------
A-------0----------------0-------------------------------------------
E--------------------------------------------------------------------




E----------------------------------------(2)--------2-------(2)----2-
B-------(2)------2------(2)-----2----------------2----3---------2---3
G--------------4----2---------4---2----------2-----------------2-----
D-----------2---------------2------------0------------------0--------
A-------0----------------0-------------------------------------------
E--------------------------------------------------------------------




E----3------3----3---2-----2----2------------------------------------
B---------3-----3---------3-----3---5-------2---2---5----5-----------
G-------2------2--------2------2----------4----4-----4---------------
D----0---------------0-------------------2-----2------2--------------
A------------------------------------0-------------------------------
E--------------------------------------------------------------------

Куплет 2:


E----------------------------------------(2)--------2-------(2)---2-
B-------(2)------2------(2)-----2----------------2----3--------2---3
G--------------4----2---------4---2----------2-----------------2-----
D-----------2---------------2------------0------------------0--------
A-------0----------------0-------------------------------------------
E--------------------------------------------------------------------




E----------------------------------------(2)--------2-------(2)----2
B-------(2)------2------(2)-----2----------------2----3--------2----3
G--------------4----2---------4---2----------2-----------------2-----
D-----------2---------------2------------0------------------0--------
A-------0----------------0-------------------------------------------
E--------------------------------------------------------------------




E----3------3----3---2-----2----2------------------------------------
B---------3-----3---------3-----3---5-------2---2---5----5-----------
G-------2------2--------2------2----------4----4-----4---------------
D----0---------------0-------------------2-----2------2--------------
A------------------------------------0-------------------------------
E--------------------------------------------------------------------


Припев:                            G     A          
D                          G       A       D
                Остане ли ми тук един приятел и моето сърце остава 
тук….

                                         G       A          
D                         A                   D             D
                Остане ли ми тук един приятел, ще остане тук и моето 
сърце!

Куплет 3:

E----------------------------------------(2)--------2-------(2)------
-2--------------
B-------(2)------2------(2)-----2----------------2----3-----------2--
--3------------
G--------------4----2---------4---2----------2-----------------2-----
D-----------2---------------2------------0------------------0--------
A-------0----------------0-------------------------------------------
E--------------------------------------------------------------------




E----------------------------------------(2)--------2-------(2)------
-2--------------
B-------(2)------2------(2)-----2----------------2----3-----------2--
--3------------
G--------------4----2---------4---2----------2-----------------2-----
D-----------2---------------2------------0------------------0--------
A-------0----------------0-------------------------------------------
E--------------------------------------------------------------------




E----3------3----3---2-----2----2------------------------------------
B---------3-----3---------3-----3---5-------2---2---5----5-----------
G-------2------2--------2------2----------4----4-----4---------------
D----0---------------0-------------------2-----2------2--------------
A------------------------------------0-------------------------------
E--------------------------------------------------------------------



Припев:                            G     A          
D                          G       A       D
                Остане ли ми тук един приятел и моето сърце остава 
тук….

                                         G       A          
D                         A                   D             D
                Остане ли ми тук един приятел, ще остане тук и моето 
сърце!

Соло:

Припев:                            G     A          
D                          G       A       D
                Остане ли ми тук един приятел и моето сърце остава 
тук….

                                         G       A          
D                         A                   D             D
                Остане ли ми тук един приятел, ще остане тук и моето 
сърце!

Завършва с D


Под звездите повървях, разни чудеса видях - искаш ли да си ги 
разделим?

Мъничко любов събрах, малко болка, малко страх - искаш ли да си ги 
разделим

Искаш ли да оставя тук нещо и от мен?
Горе бях и долу бях, сто живота изживях - искаш ли да си ги разменим?

Вече много тайни знам, други - ти открил си сам, искаш ли да си ги 
разменим?

Искаш ли да оставя тук нещо и от мен?
Припев:
Остане ли ми тук един приятел и моето сърце остава тук!

Остане ли ми тук един приятел, ще остане тук и моето сърце!
Пазя всеки миг щастлив, имам хиляди мечти - искаш ли да ти ги подаря?

Всеки изгрев, всеки ден, всяко слънце пазя в мен - искаш ли да ти ги 
подаря?

Искаш ли да оставя тук нещо и от мен?
Припев:…







акорди за китара

акорди за пиано

видео клип


© 2007-2017 akordite.com - Акорди и таблатури на български песни

Вход






Забравена парола
Нямате достъп?
Регистрирайте се!!!

Последни песни



Статистика

Песни: 1411
Потребители: 12752

В момента онлайн:

2 госта и 1 потребител
  • vasskoto