[Всички песни]
[Скрий Акордите]
[Редактирай песента]

Печат
Гама
Am : Em : Bm : F#m : C#m : G#m : D#m : A#m : Dm : Gm : Dm : Fm : Bbm : Ebm : Abm

Погледни ме във очите


Изпълнител: Анелия

Изпратил: The_Final_Cut

E-5--5-5-5-3-1-3--3-5-3-1-0-1--1-1-1-0-----------1-3-5-
B---------------------------------------3-5--3-5-------
G------------------------------------------------------
D------------------------------------------------------
A------------------------------------------------------
E------------------------------------------------------


E-5--5-5-5-3-1-3--3-5-3-1-0-1--1-1-1-0-----------------
B---------------------------------------3-5--5-5-5-3-1-
G------------------------------------------------------
D------------------------------------------------------
A------------------------------------------------------
E------------------------------------------------------

E-1--1-x--1---0-1-0----1--1-x--1---0-1-3-1--0--1
B-3--3-x--3--------3-1-3--3-x--3---------------3
G-2--2-x--3------------2--2-x--3---------------2
D-0--0----3------------0--0----3---------------0
A----------------------------------------------0
E-----------------------------------------------



Dm        Gm          D#               Dm
Тихо любовта ми гасне - чезне ден след ден,
не долавям твоя поглед - бяга той от мен.
И ме давиш в лъжите и обсебват те.
Hе поглеждаш в очите, а кълнеш се в мен..

Припев:
      Dm      A#
Погледни ме във очите
    F         C
и кажи че ме обичаш.
      Dm          A#
Hе прикривай там лъжите,
     F   C  Dm
на които ме обричаш /x2

Тихо любовта ти гасне - бяга тя от мен,
и потъва в лъжите - гасне нощ и ден.
Не прикривам аз гнева си че изгубих те
не навиждам в теб страха ти - той погубва теб...

Припев:
Погледни ме във очите
и кажи че ме обичаш,
не прикривай там лъжите
на които ме обричаш /x

акорди за китара

акорди за пиано

видео клип


© 2007-2017 akordite.com - Акорди и таблатури на български песни

Вход






Забравена парола
Нямате достъп?
Регистрирайте се!!!

Последни песни



Статистика

Песни: 1411
Потребители: 12754

В момента онлайн:

2 госта и 1 потребител
  • ivo67