[Всички песни]
[Покажи Акордите]
[Редактирай песента]

Печат
Гама
C : G : D : A : E : B : F# : C# : F : Bb : Eb : Ab : Db : Gb

Твоят знак


Изпълнител: Мери бойс бенд

Изпратил: mowerr87

intro
E--------------------3--3--
B-3-5-3-5-3-5-3-5-----6--6-
G-----------------5----5--5

Ти ми обеща море от цветя
Само двама да сме на брега
В края на ноща ми обеща
И света на утринта
Не разбрах не видях твоя знак
Не погледнах дори назад
Няма как да се върна там
Без теб
ref.
Тръгваме в различни посоки към незбъднати мечти
Колко много въпроси между нас остави ти
А а а а а
А а а а а

Ти ми обеща златна дъга
И аз чаках с теб под дъжда
В моите очи всяка сълза да изпиеш ти обеща
Неразбрах не видях твоя знак
Непогледнах дори назад
Няма как без лъжа да се върнеш

Тръгваме в различни посоки към незбъднати мечти
Колко много въпроси между нас остави ти

solo
E---------------------------------------------------
B---8s10-8---------------------8s10-8---------------
G-9---------9-7b-7---7-9b-9----------9-7------7-9---
D-7---------------10------7----------------7-10-----

E---------------------------------------------------
B---8s10-8------------------------------------------
G-9---------9-7b-7---7-9b-555555-777----------------
D-7----------------10-------------------------------


акорди за китара

акорди за пиано

видео клип


© 2007-2017 akordite.com - Акорди и таблатури на български песни

Вход






Забравена парола
Нямате достъп?
Регистрирайте се!!!

Последни песни



Статистика

Песни: 1527
Потребители: 14340

В момента онлайн:

7 госта