[Всички песни]
[Скрий Акордите]
[Редактирай песента]

Печат
Гама
Am : Em : Bm : F#m : C#m : G#m : D#m : A#m : Dm : Gm : Dm : Fm : Bbm : Ebm : Abm

Експрес танго


Изпълнител: Лили Иванова

Изпратил: mowerr87

intro

E----------------------------------------
A---------2------------------------------
D-2-------2---------2--------------------
G-2-2-4---1-1-2-4---2-2-1-0-h1-2-1-0-h1-2
B-1----1---------3--1--------------------
E-------0--------------------------------


E---------------------------
A---------------------------
D-2-4-2-2-4-2---2-----------
G------2---------2----------
B------------1----1-1--3-1-0
E------------------0--0-----

Колко съдби, колко мечти
животът среща или дели

E---------------------------
A---------------------------
D-2-3-2-2-3-2---2-----------
G------1---------1---------2
B------------0----0-0-3-1-0-
E------------------0--------

Вчера напред, утре назад
в необясним до днес кръговрат

E---------------------------
A---------------------------
D-2-4-2-2-4-2---2-----------
G------2---------2----------
B------------1----1-1--3-1-0
E------------------0--0-----

Спомени тук, спомени там
един събиран, друг разпилян

E---------------------------
A---------------------------
D-2-3-2-2-3-2---2-----------
G------1---------1---------2
B------------0----0-0-3-1-0-
E------------------0--------

Виждам за миг свят неоткрит
с една последна клечка кибрит

2]
G------3-2
B-3s5-3---



Припев:
Dm Am
Дива луна или надежда една
Am E Am
изгрява бавно и тя е сякаш знак
Dm Am
Пътник в нощта открива лодка и бряг
E Am
и тръгва някога пак към любовта

Вчера напред, утре назад
в необясним до днес кръговрат
Ден подир ден в този живот
към теб пътувам моя любов
Срещам те тук, срещам те там,
но днес къде си искам да знам
Виждам за миг свят неоткрит
с една последна клечка кибрит

Припев:...

Спомени тук, спомени там
един събиран, друг разпилян
Виждам за миг свят неоткрит
с една последна клечка кибрит

Спомени, спомени, спомени

Припев:...


акорди за китара

акорди за пиано

видео клип


© 2007-2017 akordite.com - Акорди и таблатури на български песни

Вход






Забравена парола
Нямате достъп?
Регистрирайте се!!!

Последни песни



Статистика

Песни: 1411
Потребители: 12752

В момента онлайн:

8 госта и 1 потребител
  • vasskoto