[Всички песни]
[Скрий Акордите]
[Редактирай песента]

Печат
Гама
C : G : D : A : E : B : F# : C# : F : Bb : Eb : Ab : Db : Gb

Луда нощ


Изпълнител: Сигнал

Албум: Златна колекция
Изпратил: mowerr87 

intro
E------3-----------------------------------------------------------------3
A-5----5-----------------------------------------------------5-----5--1-3-
D--5--------------------------5-5--------------------------5--3h5p3-------
G----3---3-2-3-2------5b-3h5-2-2--5h7------3-2-3-2-----h5-3---------------
B----------------3h6p3----------------6s8b---------3--3-------------------
E--------------------------------------------------3-3--------------------




Синкав, небрежен, мрака разголи
твоята тайна пред мен
с красив подарък бях дарен.
Докосвах те нежно, превземах те плахо
и се молех дори
да бъдем вечни аз и ти.


rif1
E------3--------------------8--8----------3
A-5----5--------------------10-10-6-6-5-5-5
D--5-------------5----------------8-8-7-7--
G----3---3-2-3-2--2-3s5-3-2----------------
B------------------------------------------
E------------------------------------------

Припев:
От рая ли дойде 
или от моя сън повиках те?
Дали случайно любих се със теб 
не исках и да знам, защото чувствах се голям!

rif2
E-------------------3-3------------------
A-5-5-5-------------5-5------------------
D-7-7-7-5-4-4h5--------------------------
G-------2---------2-----------12b-12-----
B-----------------------11-10-------10-11
E----------------------------------------

E---------------------------
A-3-3-----1-1-----5-5--55555
D-5-5-----3-3-----7-7--77777
G------3-------5------------
B-----1-1-----3-3-----------
E---------------------------

соло
E------3------------------------------------
A-5----5------------------------------------
D--5------------------8-----5-5------10--8-5
G----3---3-2-3-2--7b-5-5-3-2-2---7h10--5----
B-------------------------------------------
E-------------------------------------------

А времето някак изтичаше бързо
под топлите тела,
вибриращи от сладостта.

rif1

Припев:
От рая ли дойде 
или от моя сън повиках те?
Дали случайно любих се със теб 
не исках и да знам, защото чувствах се голям!
rif2

E-------------------------------
A-3-3-----1-1-----5-5------55555
D-5-5-----3-3-----7-7------77777
G------3-------5-------5--------
B-----1-1-----3-3-----3-3-------
E-------------------------------

Беше луда и страстна нощ,
бурна като дива река.
Сляхме нашите сърца,
както огъня с дима.
Беше луда и страстна нощ,
жадна като суха земя.
Поисках те за цял живот
след нашта луда нощ.

ref 2
E-----------------------------------------------------
A----------------66666----------33333-----------------
D--55555---------88888------8-7-55555-----------------
G--77777---8-7-5-------5s7-5----------3-5----5--------
B--------6b------------------------------3b-3--3h4----
E--------------------------------------------------3s2


акорди за китара

акорди за пиано

видео клип


© 2007-2017 akordite.com - Акорди и таблатури на български песни

Вход






Забравена парола
Нямате достъп?
Регистрирайте се!!!

Последни песни



Статистика

Песни: 1411
Потребители: 12746

В момента онлайн:

5 госта