[Всички песни]
[Скрий Акордите]
[Редактирай песента]

Печат
Гама
C : G : D : A : E : B : F# : C# : F : Bb : Eb : Ab : Db : Gb

В живота често става така


Изпълнител: Боян Иванов

Музика: Creedence Clearwater Revival
Изпратил: ivchovarna 

интро:

e|------------|
B|------------|
G|------------|
D|------------|  
A|3-0---3-3-0-|
E|----3-------|

Куплет 1 :                  

C                     G         C
Чувствам, че отскоро нещо не върви.
C               G       C
Някаква умора сякаш ти тежи.
F                    G        C
Ти недей да криеш - аз ще разбера,
C                     G       C
знам в живота често става и така:


Припев:

F         C     G          C
Аз търся тебе, ти търсиш друг,
    F           C    G             C
но той търси друга, тя пък търси друг.


Куплет 2 :

C                           G    C
Всеки ден заставам пред вашата врата,  
C               G        C
докато отворя дълго аз звъня.
F                     G       C
Майка ти - разбирам, крие те сега.
C                     G       C
Ще предам, тя казва, вашите цветя.


Припев:

F         C     G          C
Аз търся тебе, ти търсиш друг,
    F           C    G             C
но той търси друга, тя пък търси друг.

соло :

  C           G      C                 G     C
e|----------------------------------------------|
B|----------------------------------------------|
G|----------------------------------------------|
D|----------------------------------------------|  
A|3-0---3-3-0-----2-3-3---3-0---3-3-0-----2-3-3-|
E|----3-------3-3-------------3-------3-3-------|

  F            C
e|----------------------|
B|----------------------|
G|------------------0-0-|
D|3-0---3-3-0-----2-----|
A|----3-------3-3-------|
E|----------------------|



Припев:

F         C     G          C
Аз търся тебе, ти търсиш друг,
    F           C    G             C
но той търси друга, тя пък търси друг.


Куплет 3 :

C                     G      C
Вечер се прибирам с мойта самота,
C                  G      C
вече не разбирам твоята игра.
F                      G          C
Бяхме тъй щастливи - свърши днес това,
C                   G      C
че в живота често става и така:
 

Припев:

F         C     G          C
Аз търся тебе, ти търсиш друг,
    F           C    G             C
но той търси друга, тя пък търси друг.

                 G          C
Аз търся тебе...тя намери друг.




акорди за китара

акорди за пиано

видео клип


© 2007-2017 akordite.com - Акорди и таблатури на български песни

Вход






Забравена парола
Нямате достъп?
Регистрирайте се!!!

Последни песни



Статистика

Песни: 1411
Потребители: 12561

В момента онлайн: