[Всички песни]
[Скрий Акордите]
[Редактирай песента]

Печат
Гама
C : G : D : A : E : B : F# : C# : F : Bb : Eb : Ab : Db : Gb

Ще те открия


Изпълнител: Карамел

Изпратил: mowerr87 

C G F G
Беше минало идва бъдеще аз сам съм между тях
C G F G
И усещам как маи времето ме води за носа
F G C G
Ослепял ли съм много жал ли съм че стоя като в чужд живот
F G C
И разплакана си отива от мен Любовта
C G F G
А зад ъгъла кафенето ни днес е потънало в трева
C G F G
Кацат гълъби там но от спомена няма никаква следа



Ще седна с тях 
4----3-5-6-
3---------
2----------------6-4
1--------------3
за да поговорим малко за теб
4------------5-3-1
3---3-3-3---------
2-------------------
1--------------------
И да ми кажат те 
4----3-5-6-
3---------
2----------------6-4
1--------------3
как си ти а и къде
3---3-3-3-3-3p5-3
2----------------------
1-----------------------
припев
Ще те открия аз 
3--3h5h6-5-3
2-------------
1--------------
на колене ще падна
Bb5
4-----------5--------------
3---3-5-3------3-----------5
2----------------------4-3
1----------------------------
И времето ще спра 
3--3h5h6-5-3
2-------------
1--------------
стига да поискаш ти
4----5-6-5-3---------
3----------------------5
2------------------4-3---
1---------------------------
И с много гълъби 
3--3h5h6-5-3
2-------------
1--------------
накацали по ръцете
Bb5
4-----------5--------------
3---3-5-3------3-----------5
2----------------------4-3
1----------------------------
Ще се прегурнем 
3--3h5h6-5-3
2-------------
1--------------
и полетим
6---------
5----------
4----------5h6s8
Над света
6-------
5---8-6
4-

акорди за китара

акорди за пиано

видео клип


© 2007-2017 akordite.com - Акорди и таблатури на български песни

Вход






Забравена парола
Нямате достъп?
Регистрирайте се!!!

Последни песни



Статистика

Песни: 1411
Потребители: 12754

В момента онлайн:

1 гост