[Всички песни]
[Скрий Акордите]
[Редактирай песента]

Печат
Гама
Am : Em : Bm : F#m : C#m : G#m : D#m : A#m : Dm : Gm : Dm : Fm : Bbm : Ebm : Abm

Една китара


Изпълнител: Васко Кръпката
Текст: Васко Кръпката
Музика: Подуене Блус Бенд
Албум: "Нощни пеперуди" - 2003
Изпратил: ivchovarna
Това е мелодийката, която върви като интро и на припева. Хев фън ;)


e|-------------------- 
B|--------------------                       
G|--------------------                    
D|--------------------                   
A|3--6-5----3---------                     
E|-------6------------

e|-------------------- 
B|--------------------
G|--------------------
D|--------------------
A|3--6-5----3---------
E|-------6------------

e|-------------------- 
B|--------------------
G|--------------------
D|--------------------
A|3--6-5-------------3
E|-------6---3-1---6--


акорди за китара

акорди за пиано

видео клип

http://www.youtube.com/watch?v=84Ofj1IncDM

© 2007-2017 akordite.com - Акорди и таблатури на български песни

Вход






Забравена парола
Нямате достъп?
Регистрирайте се!!!

Последни песни



Статистика

Песни: 1411
Потребители: 12751

В момента онлайн:

11 госта и 2 потребителя
  • mafa
  • Georgi5051