[Всички песни]
[Скрий Акордите]
[Редактирай песента]

Печат
Гама
C : G : D : A : E : B : F# : C# : F : Bb : Eb : Ab : Db : Gb

Ха Ха


Изпълнител: Милена
Текст: Милена
Албум: "Ха-ха" (1991)
Изпратил: ivchovarna

Петър Събев е свършил чудесна работа с акордите в песнта. 
Реших да пратя таблатурата, за да улесня някои хора 
(доскоро и аз бях един от тзи хора  :) 

За хард частта :))
 

   [C]
e |-----------------------------------------------------------------------
b |-----------------------------------------------------------------------
g |-----------------------------------------------------------------------
d |10-10-10-10-10-10-10-10-10-10-10-10-10-10-10-10-10-10-10-10-10-10-10-10 
a |10-10-10-10-10-10-10-10-10-10-10-10-10-10-10-10-10-10-10-10-10-10-10-10 
e |-8--8--8--8--8--8--8--8--8--8--8--8--8--8--8--8--8--8--8--8--8--8--8--8
  Пречистих сееее        от всичко     мааааазно.        Опръска ме живота 

   [G]
e |---------------
b |---------------
g |---------------
d |5-5-5-5-5-5-5-5 
a |5-5-5-5-5-5-5-5 
e |3-3-3-3-3-3-3-3
  с кал.

   [C]                                [F]
e |-----------------------------------------------------------
b |-----------------------------------------------------------
g |-----------------------------------------------------------
d |10-10-10-10-10-10-10-10-10-10-10-10-3-3-3-3-3-3-3-3-3-3-3-3
a |10-10-10-10-10-10-10-10-10-10-10-10-3-3-3-3-3-3-3-3-3-3-3-3 
e |-8--8--8--8--8--8--8--8--8--8--8--8-1-1-1-1-1-1-1-1-1-1-1-1
  Обърнах гръб на                      суетата.

 [G]                 [C]
e |---------------   ----------------------
b |---------------   ----------------------
g |---------------   ----------------------
d |5-5-5-5-5-5-5-5   10-10-10-10-10-10-10-10
a |5-5-5-5-5-5-5-5   10-10-10-10-10-10-10-10
e |3-3-3-3-3-3-3-3   -8--8--8--8--8--8--8--8
  Създадох вечният   скандал.

Бързата част :

  [C]
e |-8--8--8--8--8--8--8--8--8--8--8--8--8--8--8--8--8--8--8--8--8--8--8--8
b |-8--8--8--8--8--8--8--8--8--8--8--8--8--8--8--8--8--8--8--8--8--8--8--8
g |-8--8--8--8--8--8--8--8--8--8--8--8--8--8--8--8--8--8--8--8--8--8--8--8
d |10-10-10-10-10-10-10-10-10-10-10-10-10-10-10-10-10-10-10-10-10-10-10-10 
a |10-10-10-10-10-10-10-10-10-10-10-10-10-10-10-10-10-10-10-10-10-10-10-10 
e |-8--8--8--8--8--8--8--8--8--8--8--8--8--8--8--8--8--8--8--8--8--8--8--8
   

   [G]
e |3-3-3-3-3-3-3-3
b |3-3-3-3-3-3-3-3
g |3-3-3-3-3-3-3-3
d |5-5-5-5-5-5-5-5 
a |5-5-5-5-5-5-5-5 
e |3-3-3-3-3-3-3-3
 

   [C]                                [F]
e |-8--8--8--8--8--8--8--8--8--8--8--8-1-1-1-1-1-1-1-1-1-1-1-1
b |-8--8--8--8--8--8--8--8--8--8--8--8-1-1-1-1-1-1-1-1-1-1-1-1
g |-8--8--8--8--8--8--8--8--8--8--8--8-1-1-1-1-1-1-1-1-1-1-1-1
d |10-10-10-10-10-10-10-10-10-10-10-10-3-3-3-3-3-3-3-3-3-3-3-3
a |10-10-10-10-10-10-10-10-10-10-10-10-3-3-3-3-3-3-3-3-3-3-3-3 
e |-8--8--8--8--8--8--8--8--8--8--8--8-1-1-1-1-1-1-1-1-1-1-1-1
  

 [G]                 [C]
e |3-3-3-3-3-3-3-3   -8--8--8--8--8--8--8--8
b |3-3-3-3-3-3-3-3   -8--8--8--8--8--8--8--8
g |3-3-3-3-3-3-3-3   -8--8--8--8--8--8--8--8 
d |5-5-5-5-5-5-5-5   10-10-10-10-10-10-10-10
a |5-5-5-5-5-5-5-5   10-10-10-10-10-10-10-10
e |3-3-3-3-3-3-3-3   -8--8--8--8--8--8--8--8


 

акорди за китара

акорди за пиано

видео клип


© 2007-2017 akordite.com - Акорди и таблатури на български песни

Вход






Забравена парола
Нямате достъп?
Регистрирайте се!!!

Последни песни



Статистика

Песни: 1411
Потребители: 12754

В момента онлайн:

1 гост