[Всички песни]
[Скрий Акордите]
[Редактирай песента]

Печат
Гама
Am : Em : Bm : F#m : C#m : G#m : D#m : A#m : Dm : Gm : Dm : Fm : Bbm : Ebm : Abm

Лондон? Париж? Берлин?


Изпълнител: Остава

Албум: Моно
Изпратил: 	Mikolasz

E -------------- --------------- -------------- ---------------
B --------3----- --------------- -------------- ---------------
G ------0---0--- -------0-----0- -------------- ---------------
D ---01-------1- -----0---0----- ------0---0--- ----0----0---0-
A -3------------ ---3-------1--- ---01---1---1- -01---01---1---
E -------------- -1------------- -3------------ ---------------

Cm Dm Gm -

E -------------- --------------- -------------- ---------------
B -------------- -3------------- -------------- ---------------
G -----0---0---- -----0---0----- ------0---0--- ----0----0---0-
D -101---1---1-- ---1---1---1--- ---01-------1- -01---01-------
A -------------- --------------- -3------3----- -----------3---
E -------------- --------------- -------------- ---------------

E -------------- --------------- -------------- ---------------
B -------------- --------------- -------------- ---------------
G -----0---0---- -2---0---0----- ------0---0--- ----0----0---0-
D -101---1---1-- ---1---1---1--- ---01-------1- -01---01-------
A -------------- --------------- -3------3----- -----------3---
E -------------- --------------- -------------- ---------------

E -------------- --------------- -------------- ---------------
B -------------- -3---4--------- -------------- ---------------
G -----0---0---- ---------0----- ------0---0--- ----0----0---0-
D -101---1---1-- ---1---1---1--- ---01-------1- -01---01-------
A -------------- --------------- -3------3----- -----------3---
E -------------- --------------- -------------- ---------------

E -------------- --------------- -------------- ---------------
B -------------- --------------- -------------- ---------------
G -----0---0---- -2---0---0----- ------0---0--- ----0----0---0-
D -101---1---1-- ---1---1---1--- ---01-------1- -01---01-------
A -------------- --------------- -3------3----- -----------3---
E -------------- --------------- -------------- ---------------

Cm - Gm -

Cm Dm Gm -

E -3-3-3-3- -13-3-3-3-1-
B -3-3-3-3- -3--3-3-3-3-
G -0-0-0-0- -0--0-0-0-0-
D -0-0-0-0- -0--0-0-0-0-
A -2-2-2-2- -2--2-2-2-2-
E -3-3-3-3- -3--3-3-3-3

акорди за китара

акорди за пиано

видео клип


© 2007-2017 akordite.com - Акорди и таблатури на български песни

Вход






Забравена парола
Нямате достъп?
Регистрирайте се!!!

Последни песни



Статистика

Песни: 1411
Потребители: 12526

В момента онлайн:

14 госта и 3 потребителя
  • Georgi5051
  • Todor lefterov
  • Jon Lord