[Всички песни]
[Покажи Акордите]
[Редактирай песента]

Печат
Гама
C : G : D : A : E : B : F# : C# : F : Bb : Eb : Ab : Db : Gb

Еньовден


Изпълнител: Щурците

Албум: Вкусът на времето
Изпратил: mart

----------------------------------------
----------------------------------------
-9--9--7-----9--------------------------
-9--9--7--7--9-----------------5--------
-7--7--5--7--7---2-4-5-4-3-5-7---7-5-7--
----------5-----------------------------
x4

1.Грее месечина още
посред нощи-полунощи.
И под всяка дълга стряха
първите петли пропяха. (ку-ку, кукуригу)
Бай, бай бабо ле.  (бай, бай бабо ле)

--------------------------
--------------------------
-----------------0--------
---------------2---2-0-2--
-2-4-5-4------------------
---------5--3-------------

2.Пее плаче нощно пиле (бай, бай бабо ле)
търся аз омайно биле. (бай, бай бабо ле)
Бродницата дългокоса
тази нощ да омагьосам. (ку-ку, кукуригу)
Бай, бай бабо ле.  (бай, бай бабо ле)

---------------
---------------
---------------
---------------
-2-4-5-4-------
---------5--3--            E  D
Уроки са ме хванали.

Месец по небето ходи,
бродница сред нива броди.
Жито кити на косата
и се къпе във росата. Ооуооуо...

----------------------------------------
----------------------------------------
-9--9--7-----9--------------------------
-9--9--7--7--9-----------------5--------
-7--7--5--7--7---2-4-5-4-3-5-7---7-5-7--
----------5-----------------------------
(бай, бай бабо ле) Уроки са ме хванали.
(бай, бай бабо ле) Пукнали та се треснали.

/соло/
E     E A D B G      G C A D

3.Грее месечина още
посред нощи-полунощи.
И под всяка дълга стряха
вторите петли пропяха. (бай бай, бай бай)
Бабо ле. (бай, бай бабо ле)
Уу уроки са ме хванали. (бай, бай бабо ле)

Като че ли, трети петли
пеят нека онемеят.
Бай, бай бабо ле -
уроки са ме хванали.
И четвъртите пропяха
там под непозната стряха.
Бай, бай бабо ле -
уроки са ме хванали.
Бродницата дългокоса
взе, че мен ме омагьоса.

Бай, бай бабо ле -
сини очи куршумени. (сини очи куршумени)
Бай, бай бабо ле -
черни очи черешови. (черни очи черешови)
Бай, бай бабо ле -
лоши очи таласъмени. (лоши очи талсъмени)

---------------------- ----------
---------------------- ----------
---------------------- ---9-9-9--
----------------5----- ---9-9-9--
------5-4-3-5-7---7--- -5-7-7-7--
---------------------- ----------
x3


акорди за китара

акорди за пиано

видео клип


© 2007-2017 akordite.com - Акорди и таблатури на български песни

Вход






Забравена парола
Нямате достъп?
Регистрирайте се!!!

Последни песни



Статистика

Песни: 1411
Потребители: 12635

В момента онлайн:

1 гост и 1 потребител
  • Justy