[Всички песни]
[Скрий Акордите]
[Редактирай песента]

Печат
Гама
C : G : D : A : E : B : F# : C# : F : Bb : Eb : Ab : Db : Gb

Широко затворени очи


Изпълнител: Слави Трифонов

Музика: Цветан Недялков
Албум: Прима патриот - 2004
                             Широко затворени очи                               
                               Слави Трифонов


By: blz777 
                                               
     E          E  E  Q    E  E  E     E  E  E  Q    E  E  E   
E||------------------------0--------|----------------0--------|
B||-------------------0-------0-----|-----------0-------0-----|
G||----------------5-------------5--|--------5-------------5--|
D||-------------4-------------------|-----4-------------------|
A||--2------------------------------|--2----------------------|
E||---------------------------------|-------------------------|


  E  E  E  Q    E  E  E     E  E  E  E  E  E  E  E     E  E  E  Q    E  E  E   
----------------0--------|--------------------------|----------------0--------|
-----------0-------0-----|--------------------------|-----------0-------0-----|
--------5-------------5--|--------5--------5--------|--------5-------------0--|
-----4-------------------|-----4--------4--------4--|-----4-------------------|
--2----------------------|--0-----------------------|-------------------------|
-------------------------|-----------3--------2-----|--1----------------------|


  W                   E  E  E  Q    E  E  E     E  E  E  Q    E  E  E   
-------------------|----------------0--------|----------------0--------|
-------------------|-----------0-------0-----|-----------0-------0-----|
-------------------|--------5-------------5--|--------5-------------5--|
--4----------------|-----4-------------------|-----4-------------------|
-------------------|--2----------------------|--2----------------------|
-------------------|-------------------------|-------------------------|


  E  E  E  Q    E  E  E     E  E  E  E  E  E  E  E     E  E  E  Q    E  E  E   
----------------0--------|--------------------------|----------------0--------|
-----------0-------0-----|--------------------------|-----------0-------0-----|
--------5-------------5--|--------5--------5--------|--------5-------------5--|
-----4-------------------|-----4--------4--------4--|-----4-------------------|
--2----------------------|--0-----------------------|-------------------------|
-------------------------|-----------3--------2-----|--1----------------------|


  H.              E  E  E  Q    E  E  E     E  E  E  E  E   E  E  E   
---------------|----------------0--------|---------------------------|
---------------|-----------0-------0-----|------------------------0--|
---------------|--------1-------------1--|--------1------------1-----|
--4------------|-----2-------------------|-----2-----2--2h--4--------|
---------------|-------------------------|---------------------------|
---------------|--0----------------------|--0------------------------|


  E  E  E  Q    E  E  E     E  E  E  E  E   E  E  E     E  E  E  Q    E  E  E   
----------------0--------|---------------------------|----------------0--------|
-----------0-------0-----|------------------------0--|-----------0-------0-----|
--------1-------------1--|--------1------------1-----|--------1-------------1--|
-----2-------------------|-----2-----2--2h--4--------|-----2-------------------|
-------------------------|---------------------------|-------------------------|
--0----------------------|--0------------------------|--0----------------------|


  E  E  E  E  E   E  E  E     E  E  E  Q    E  E  E   
---------------------------|----------------0--------|
------------------------0--|-----------0-------0-----|
--------1------------1-----|--------5-------------5--|
-----2-----2--2h--4--------|-----7-------------------|
---------------------------|--0----------------------|
--0------------------------|-------------------------|


  E  E  E  E  E   E  E  E     E  E  E  Q    E  E  E   
---------------------------|----------------0--------|
------------------------0--|-----------0-------0-----|
--------5------------5-----|--------1-------------1--|
-----7-----7--7h--9--------|-----2-------------------|
--0------------------------|-------------------------|
---------------------------|--0----------------------|


  E  E  E  E  E   E  E  E     E  E  E  Q    E  E  E   
---------------------------|----------------0--------|
------------------------0--|-----------0-------0-----|
--------1------------1-----|--------1-------------1--|
-----2-----2--2h--4--------|-----2-------------------|
---------------------------|-------------------------|
--0------------------------|--0----------------------|


  E  E  E  E  E   E  E  E     E  E  E  Q    E  E  E   
---------------------------|----------------0--------|
------------------------0--|-----------0-------0-----|
--------1------------1-----|--------1-------------1--|
-----2-----2--2h--4--------|-----2-------------------|
---------------------------|-------------------------|
--0------------------------|--0----------------------|


  E  E  E  E  E   E  E  E     E  E  E  Q    E  E  E   
---------------------------|----------------0--------|
------------------------0--|-----------0-------0-----|
--------1------------1-----|--------5-------------5--|
-----2-----2--2h--4--------|-----7-------------------|
---------------------------|--0----------------------|
--0------------------------|-------------------------|


  E  E  E  E  E   E  E  E     E  E  E  Q    E  E  E   
---------------------------|----------------0--------|
------------------------0--|-----------0-------0-----|
--------5------------5-----|--------1-------------1--|
-----7-----7--7h--9--------|-----2-------------------|
--0------------------------|-------------------------|
---------------------------|--0----------------------|


  E  E  E  E  E   E  E  E     E  E  E  Q    E  E  E   
---------------------------|----------------0--------|
------------------------0--|-----------0-------0-----|
--------1------------1-----|--------1-------------1--|
-----2-----2--2h--4--------|-----2-------------------|
---------------------------|-------------------------|
--0------------------------|--0----------------------|


  E  E  E  E  E  E  E  E     E  E  E  Q    E  E  E   
--------------------------|----------------0--------|
--------------------------|-----------0-------0-----|
--------1--------1--------|--------5-------------5--|
-----2--------2--------2--|-----7-------------------|
--------------------------|--0----------------------|
--0--------2--------4-----|-------------------------|


  E  E  E  E  E   E  E  E     E  E  E  Q    E  E  E   
---------------------------|----------------0--------|
------------------------0--|-----------0-------0-----|
--------5------------5-----|--------5-------------5--|
-----7-----7--7h--9--------|-----5-------------------|
--0------------------------|-------------------------|
---------------------------|--3----------------------|


  E  E  E  E  E   E  E  E     E  E  E  Q    E  E  E   
---------------------0-----|----------------0--------|
-----------0------------0--|-----------0-------0-----|
--------5-----4h--5--------|--------5-------------5--|
-----5---------------------|-----7-------------------|
---------------------------|--0----------------------|
--3------------------------|-------------------------|


  E  E  E  E  E   E  E  E     E  E  E  Q    E  E  E   
---------------------------|----------------0--------|
------------------------0--|-----------0-------0-----|
--------5------------5-----|--------5-------------5--|
-----7-----7--7h--9--------|-----7-------------------|
--0------------------------|--0----------------------|
---------------------------|-------------------------|


  E  E  E  E  E   E  E  E     E  E  E  Q    E  E  E     E  E  E  Q    E  E  E   
---------------------------|----------------0--------|----------------0--------|
------------------------0--|-----------0-------0-----|-----------0-------0-----|
--------5------------5-----|--------5-------------5--|--------5-------------5--|
-----7-----7--7h--9--------|-----4-------------------|-----4-------------------|
--0------------------------|--2----------------------|--2----------------------|
---------------------------|-------------------------|-------------------------|


  E  E  E  Q    E  E  E     E  E  E  E  E  E  E  E     E  E  E  Q    E  E  E   
----------------0--------|--------------------------|----------------0--------|
-----------0-------0-----|--------------------------|-----------0-------0-----|
--------0-------------0--|--------0--------0--------|--------5-------------5--|
-----2-------------------|-----2--------2--------2--|-----7-------------------|
-------------------------|--------------------------|--0----------------------|
--0----------------------|--0--------2--------3-----|-------------------------|


  E  E  E  E  E   E  E  E     E  E  E  Q    E  E  E   
---------------------------|----------------0--------|
------------------------0--|-----------0-------0-----|
--------5------------5-----|--------5-------------5--|
-----7-----7--7h--9--------|-----7-------------------|
--0------------------------|--0----------------------|
---------------------------|-------------------------|


  E  E  E  E  E   E  E  E     E  E  E  Q    E  E  E     E  E  E  Q    E  E  E   
---------------------------|----------------0--------|----------------0--------|
------------------------0--|-----------0-------0-----|-----------0-------0-----|
--------5------------5-----|--------5-------------5--|--------5-------------5--|
-----7-----7--7h--9--------|-----4-------------------|-----4-------------------|
--0------------------------|--2----------------------|--2----------------------|
---------------------------|-------------------------|-------------------------|


  E  E  E  E  E  E  E  E     E  E  E  E  E  E  E  E     E  E  E  Q    E  E  E   
-----------0-----------0--|-----------0-----------0--|----------------0--------|
--------0-----------0-----|--------0-----------0-----|-----------0-------0-----|
-----0-----------0--------|-----0-----------0--------|--------5-------------5--|
--------------------------|--------------------------|-----7-------------------|
--7-----------5-----------|--3-----------2-----------|--0----------------------|
--------------------------|--------------------------|-------------------------|


  E  E  E  E  E   E  E  E     E  E  E  Q    E  E  E     E  E  E  Q    E  E  E   
---------------------------|----------------0--------|----------------0--------|
------------------------0--|-----------0-------0-----|-----------0-------0-----|
--------5------------5-----|--------5-------------5--|--------5-------------5--|
-----7-----7--7h--9--------|-----4-------------------|-----4-------------------|
--0------------------------|--2----------------------|--2----------------------|
---------------------------|-------------------------|-------------------------|


  E  E  E  Q    E  E  E     E  E  E  Q    E  E  E     E  E  E  Q    E  E  E   
----------------0--------|----------------0--------|----------------0--------|
-----------0-------0-----|-----------0-------0-----|-----------0-------0-----|
--------5-------------5--|--------5-------------5--|--------5-------------5--|
-----4-------------------|-----4-------------------|-----4-------------------|
--2----------------------|--2----------------------|--2----------------------|
-------------------------|-------------------------|-------------------------|


  E  E  E  Q    E  E  E     E  E  E  Q    E  E  E     E  E  E  E  E  E  E  E   
----------------0--------|----------------0--------|--------------------------|
-----------0-------0-----|-----------0-------0-----|--------------------------|
--------5-------------5--|--------0-------------0--|--------0--------0--------|
-----4-------------------|-----2-------------------|-----2--------2--------2--|
--2----------------------|-------------------------|--------------------------|
-------------------------|--0----------------------|--0--------2--------3-----|


  E  E  E  Q    E  E  E     E  E  E  E  E   E  E  E     E  E  E  Q    E  E  E   
----------------0--------|---------------------------|----------------0--------|
-----------0-------0-----|------------------------0--|-----------0-------0-----|
--------5-------------5--|--------5------------5-----|--------5-------------5--|
-----7-------------------|-----7-----7--7h--9--------|-----7-------------------|
--0----------------------|--0------------------------|--0----------------------|
-------------------------|---------------------------|-------------------------|


  E  E  E  E  E   E  E  E     E  E  E  Q    E  E  E     E  E  E  Q    E  E  E   
---------------------------|----------------0--------|----------------0--------|
------------------------0--|-----------0-------0-----|-----------0-------0-----|
--------5------------5-----|--------5-------------5--|--------5-------------5--|
-----7-----7--7h--9--------|-----4-------------------|-----4-------------------|
--0------------------------|--2----------------------|--2----------------------|
---------------------------|-------------------------|-------------------------|


  E  E  E  E  E  E  E  E     E  E  E  E  E  E  E  E     E  E  E  Q    E  E  E   
-----------0-----------0--|-----------0-----------0--|----------------0--------|
--------0-----------0-----|--------0-----------0-----|-----------0-------0-----|
-----0-----------0--------|-----0-----------0--------|--------5-------------5--|
--------------------------|--------------------------|-----7-------------------|
--7-----------5-----------|--3-----------2-----------|--0----------------------|
--------------------------|--------------------------|-------------------------|


  E  E  E  E  E   E  E  E     E  E  E  Q    E  E  E     E  E  E  Q    E  E  E   
---------------------------|----------------0--------|----------------0--------|
------------------------0--|-----------0-------0-----|-----------0-------0-----|
--------5------------5-----|--------5-------------5--|--------5-------------5--|
-----7-----7--7h--9--------|-----4-------------------|-----4-------------------|
--0------------------------|--2----------------------|--2----------------------|
---------------------------|-------------------------|-------------------------|


  E  E  E  Q    E  E  E     E  E  E  E  E  E  E  E     E  E  E  Q    E  E  E   
----------------0--------|--------------------------|----------------0--------|
-----------0-------0-----|--------------------------|-----------0-------0-----|
--------5-------------5--|--------5--------5--------|--------5-------------0--|
-----4-------------------|-----4--------4--------4--|-----4-------------------|
--2----------------------|--0-----------------------|-------------------------|
-------------------------|-----------3--------2-----|--1----------------------|


  W                   E  E  E  Q    E  E  E     E  E  E  Q    E  E  E   
-------------------|----------------0--------|----------------0--------|
-------------------|-----------0-------0-----|-----------0-------0-----|
-------------------|--------5-------------5--|--------5-------------5--|
--4----------------|-----4-------------------|-----4-------------------|
-------------------|--2----------------------|--2----------------------|
-------------------|-------------------------|-------------------------|


  E  E  E  Q    E  E  E     E  E  E  E  E  E  E  E     E  E  E  Q    E  E  E   
----------------0--------|--------------------------|----------------0--------|
-----------0-------0-----|--------------------------|-----------0-------0-----|
--------5-------------5--|--------5--------5--------|--------5-------------5--|
-----4-------------------|-----4--------4--------4--|-----4-------------------|
--2----------------------|--0-----------------------|-------------------------|
-------------------------|-----------3--------2-----|--1----------------------|


  H.              S S S S S S           
---------------|--0-----------|-------||
---------------|----0---------|-------||
---------------|------1-------|-------||
--4------------|--------2-----|-------||
---------------|----------2---|-------||
---------------|------------0-|-------||




Duration Legend
---------------
W - whole
H - half
Q - quarter
E - 8th
S - 16th
T - 32nd
X - 64th
. - note dotted
|-n-|  - n-tuplets


акорди за китара

акорди за пиано

видео клип


© 2007-2017 akordite.com - Акорди и таблатури на български песни

Вход






Забравена парола
Нямате достъп?
Регистрирайте се!!!

Последни песни



Статистика

Песни: 1411
Потребители: 12561

В момента онлайн:

2 госта и 3 потребителя
  • Щелян
  • Georgi5051
  • ivan69