[Всички песни]
[Покажи Акордите]
[Редактирай песента]

Печат
Гама
Am : Em : Bm : F#m : C#m : G#m : D#m : A#m : Dm : Gm : Dm : Fm : Bbm : Ebm : Abm

Кажи на майка си


Изпълнител: Слави Трифонов
Текст: Годжи
Музика: Гъмзата
Албум: Ние продължаваме
Изпратил: digan
Изпратил солото: Starky88

Всичко направих да забравя две очи.
Минах през огън и се молех, но уви.
Как да изтрия всяка дума,
Всеки поглед, всеки миг?
Как да се справя всичко мога,
Но с това не бих.

Пр: Kажи на майка си,
Кажи на майка си сега,
Какви ги правеше и днес
И вчера през нощта.
Сега върви напред, натам
Иди на майка си кажи.

Знай ще минем през години
Всеки с друг.
Ти ще се лъжеш, че обичаш,
Но напук.
И ще се търсим и ще крием
Самотата от света,
Ще се повтаряме като във дяволска шега.

Пр: ---------//---------


СОЛО х2:



Солото:

|-3-1-3-----3-1-3-3-1-3---3-1-0-------1-0---------
|-------------------------------2---2-----2-2-0-2-
|---------------------------------2---------------
|-------------------------------------------------
|-------------------------------------------------

-------0---------------0-------------------------|
-3-1-3-----3-1-3-3-1-3---3-1-0-------1-0---------|
-------------------------------2---2-----2-2-0-2-|
---------------------------------2---------------|
-------------------------------------------------|
-------------------------------------------------

акорди за китара

акорди за пиано

видео клип


© 2007-2017 akordite.com - Акорди и таблатури на български песни

Вход






Забравена парола
Нямате достъп?
Регистрирайте се!!!

Статистика

Песни: 1490
Потребители: 13434

В момента онлайн:

9 госта и 3 потребителя
  • nasjo
  • nikoloffp
  • ilkoelkin