[Всички песни]
[Скрий Акордите]
[Редактирай песента]

Печат
Гама
Am : Em : Bm : F#m : C#m : G#m : D#m : A#m : Dm : Gm : Dm : Fm : Bbm : Ebm : Abm

Защо


Изпълнител: Милена

Изпратил: antifon (Даниел) 
                                          
Intro (part I)

     Gtr. I (Acoustic Nylon)

     Аm7                   Bm7

е ||---------------5---|--------------7-----|
B ||---------8---------|--------10------10--|
G ||-----5-----5-------|------7-------------|
D ||---7---7-----7-----|----9---------------|
A ||-0-----------------|--------------------|
e ||-------------------|--------------------|

     Am7                Gsus4
 
e ||------------------|------------------|
B ||---------8--------|---------3--------|
G ||-----5-----5------|-----------0------|
D ||---7---7-----7----|---0---------0----|
A ||-0--------------3/|/5---5\3-------3--|
E ||------------------|------------------|
 
     Аm7                   Bm7

е ||---------------5---|--------------7-----|
B ||---------8---------|--------10------10--|
G ||-----5-----5-------|------7-------------|
D ||---7---7-----7-----|----9---------------|
A ||-0-----------------|--------------------|
e ||-------------------|--------------------|

                       Cadd9

e ||------------------|-0----------------||
B ||---8---6-----5----|-3----------------||
G ||---------5--------|-0----------------||
D ||-----7-----7------|-2----------------||
A ||-0----------------|-3----------------||
E ||------------------|------------------||



Intro (part II)

Rhy.Fig.1                     (end Rhy.Fig.1)     

Gtr.I & Gtr.II
    Am                   G     F

e ||-0-------0-0-0-0-0-|-3-3-x----------0-1-||
B ||-1-------1-1-1-1-1-|-3-3-x--------1-1-1-||
G ||-2-------2-2-2-2-2-|-4-4-x-2------2-2-2-||
D ||-2-------2---2-2-2-|-5-5---3------3-3-3-||
A ||-0-----------0---0-|---5---3--------3-3-||
Е ||-------------------|-------1----------1-||


w/Rhy.Fig.1 played 4 times

Gtr.III (Overdriven Electric)

      
e ||-------------------|--------------------|
B ||-------------------|--------------------|
G ||--------------/4/5-|-7---5---4---4h5p4--|
D ||-/7----------------|--------------------|
A ||-------------------|--------------------|
E ||-------------------|--------------------|


e ||-------------------|------------------5-|
B ||-------------------|-----------------5--|
G ||-------------------|-5-7b----5-7--------|
D ||-/7------------5-7-|--------------------|
A ||-------------------|--------------------|
E ||-------------------|--------------------|
  

е ||-8--7--------------|--------------------|
B ||-------8-5---------|--------------------|
G ||-------------------|-7b--5-7----------5-|
D ||-------------------|--------------------|
A ||-------------------|--------------------|
E ||-------------------|--------------------|


e ||-------------------|-----8-10-10/12------||
B ||------8---8-----/10|-10------------------||
G ||-7/9----9----------|---------------------||
D ||-------------------|---------------------||
A ||-------------------|---------------------||
E ||-------------------|---------------------||



Verse 1

w/Rty.Fig.1 played 8 times

Понякога, когато оставам сама, започва да ме мъчи мисълта,
че живея в клетка без никаква врата.
Не мога да се махна, ни да вдигна ръка, защото господарят е измислил това-
да стоя на тясно срещу порцийка храна.

Chorus* w/Rhy.Fig.1 played 4 times

Тук акордите са същите, но ако искате можете да сврите втора китара така:

   Amadd9                G/A    F    Fmaj7

E ||-0-------0-0-0-0---|-3-3----1----0-0-0-||
B ||-0-------0-0-0-0---|-3-3----1----1-1-1-||
G ||-5-------5-5-5-5---|-4-4----2----2-2-2-||
D ||-7-------7-7-7-7---|-5-5----3----3-3---||
A ||-0-----------0-0---|---0---------0-0---||
e ||-------------------|-------------------||

или пък да разлагате акордите ...ваше решение. Също така има още една китара - електрическа, която свири
някаква мелодия, но не съм си правил труда да я свалям, някой ден, ако имам време, ще я добавя.


Verse 2 

W/Rhy.Fig.1 played 8 times

Друг път превъртяла от ужасен сън, ставам от леглото и поглеждам навън,
да видя там ли си е всичко, в комплекта както си стои.
Въздухът, небето, дървета и река, станали са черни, но това е от нощта,
но всичко си е тук - не съм ограбената аз.


Guitar Solo

w/Rhy.Fig.1 played 4 times

    Gtr. III (Electric Guitar w/distortion)


e ||---------------------|---------------------|
B ||-10------------------|-8-------------------|
G ||-----------9---------|---10-9-7-------7----|
D ||---------------------|-------------10------|
A ||---------------------|---------------------|
E ||---------------------|---------------------|


e ||---------------------|---------------------|
B ||---------------------|---------------------|
G ||-9--------5----------|-/7--5--4------------|
D ||---------------------|-----------7---------|
A ||---------------------|---------------------|


e ||---------------------|---------------------|
B ||-10------------------|-8-------------------|
G ||-----------9---------|---10-9-7-------7----|
D ||---------------------|-------------10------|
A ||---------------------|---------------------|
E ||---------------------|---------------------|


e ||---------------------|------------------------||
B ||----------10---------|-12/13\12-10------------||
G ||-9-------------------|------------------------||
D ||---------------------|------------------------||
A ||---------------------|------------------------||
E ||---------------------|------------------------||


Rhy.Fig.2  Gtr. III        (end Rhy.Fig.1)

       |P.M.|            P.M.            
E ||---|----|---------|------------------||
B ||---|----|---------|------------------||
G ||---|----|---------|-------2----------||
D ||-7-|----|7------7-|-5-----3----------||
A ||-7-7-7-7-7----x-7-|-5-5-5-3------3-3-||
e ||-5-5-5-5-5----x-5-|-3-3-3-1------1-1-||


Verse 3

W/Rhy.Fig.1 & 2 played 8 times

Смахнати сме всички, а другите ги няма, останали са малко и копаят пак.
Искат да прокарат мост над нищетата, но трудно ще прескочат този мръсен ад.
Смахнати сме всички, а другите ги няма, останали са малко и копаят пак.
Искат да прокарат мост над нищетата, но трудно ще прескочат този мръсен ад.



Outo

W/Rhy.Fig. 1 & 2 played 10 times (тва е примерно )

Защо трябва да стоим натясно някъде за порцийка храна? (x8)



Към края на песента отново се чува класическата акустична китара, която свири това:


E ||---------------5---|--------------7-----||
B ||---------8---------|--------10------10--||
G ||-----5-----5-------|------7-------------||
D ||---7---7-----7-----|----9---------------||
A ||-0-----------------|--------------------||
e ||-------------------|--------------------||






Legend:

/ - slide in

\ - slide out

h - hammer on

p - pull off

b - bend

P.M.- palm mute




акорди за китара

акорди за пиано

видео клип


© 2007-2017 akordite.com - Акорди и таблатури на български песни

Вход






Забравена парола
Нямате достъп?
Регистрирайте се!!!

Последни песни



Статистика

Песни: 1411
Потребители: 12548

В момента онлайн:

4 госта