[Всички песни]
[Скрий Акордите]
[Редактирай песента]

Печат
Гама
C : G : D : A : E : B : F# : C# : F : Bb : Eb : Ab : Db : Gb

Уиски с фъстъци


Изпълнител: Уикеда
Текст: Ерол Ибрахимов
Изпратил: egasimus

Интрото се свири не особено лесно, така:

e|---------------------------------------|-----------------------------|
b|-6-------------------------------------|-----------------------6-----|
g|-----7---8-5---5-8-7-------7-5-------5-|-7-------7-8-5---5-8-7-------|
d|-------8-------------8---8-----7---7---|---8---8---------------------|
a|-------------8---------8---------8-----|-----8---------8-------------|
e|---------------------------------------|-----------------------------|

или така:

e|-1-------------------------------------|-----------------------1-----|
b|-----3---4-1---1-4-3-------3-1-------1-|-3-------3-4-1---1-4-3-------|
g|-------3-------------3---3-----2---2---|---3---3---------------------|
d|-------------3---------3---------3-----|-----3---------3-------------|
a|---------------------------------------|-----------------------------|
e|---------------------------------------|-----------------------------|

А песента се пее така:

 [A#]Не съм аз нещо о[D#]собено, не [Cm]съм даже кра[F]сив.
 [A#]Не умея да говоря [D#]хубаво, [Cm]такъв съм си мега-свен[F]лив.
 [A#]Видях я там[D#], са[Cm]мотна на [F]бара,
 [A#]въртеше у[D#]несено [Cm]кутия вносни [F]цигари.

 [A#]Видях също, че [Gm]гледат я [F]всички,
 [A#]аз пък се опитах [D#]да я почерпя фъс[F]тъчки.
 [A#]Върти се, не спира кутията [Gm]вносни ц[F]игари,
 [A#]а на мен под лъжичката [D#]взе да ми [F]пари.

"Бонд. Джеймс Бонд" чух се да казвам.
Отговора й знаете всички.
Въздъхнах отчаяно и се обърнах
към моето уиски и мойте фъстъчки.

Припев:
Уиски[A#][D#][A#]
със фъстъци[A#][Cm][D#]
и от време на време[A#][D#][A#]
бадеми. [A#][D#][F] Е-о!

Естествено е всичките сутрини да ме боли глава.
Това се случва на хиляди българи, Европа не я трогва това.
Че пия сам - ето какво ме тревожи.
Самотата е тъжна, скучна, досадна.

Имам случайно някаква работа,
нищо, че не съм упорит, работлив.
Закъснявам, разбира се, не влагам старание,
шефът ме заплашва всеки ден с уволнение.

"Вън! Вън!" чух го да кряска.
Как отговорих аз знаете всички.
Въздъхнах отчаяно и се запътих
към моето уиски и мойте фъстъци.

Припев.

Знам, че адски е глупаво и банално дори.
Исках да кажа нещо хубаво, интелигентно нещо, нали.
А то пък виж какво се получи.
Младите от това какво ще научат?

Не, нямам, нямам какво да ви дам!
Нищо не мога и нищо не знам!
Ключа съм забравил и не е тва мойта барака,
не ми харесва тук, но какво ли има оттатък?

Цигарите са вредни ужасно за здравето,
защо не ги отказах още навремето?
Нищо не мога и нищо не знам.
Не-не-не, нямам, нямам какво да ви дам.
Освен:

Припев.

----

Хубаво се получава, ако сложите каподастър (например направен от химикалка и седем цветни ластичета) на първо прагче. Тогава и интрото се свири по-лесно, и акордите по-леко се нижат. Иначе ако си транспонирате песента в сол, също се свири лесно

акорди за китара

акорди за пиано

© 2007-2017 akordite.com - Акорди и таблатури на български песни

Вход






Забравена парола
Нямате достъп?
Регистрирайте се!!!

Последни песни



Статистика

Песни: 1411
Потребители: 12754

В момента онлайн:

1 гост