[Всички песни]
[Скрий Акордите]
[Редактирай песента]

Печат
Гама
C : G : D : A : E : B : F# : C# : F : Bb : Eb : Ab : Db : Gb

Повей, ветре


Изпълнител: Паша Христова
Текст: Димитър Василев
Музика: Йосиф Цанков, аранжимент - Николай Арабаджиев
Изпратил: mackey_mkay

Am

E|------------
B|----1-0-----
G|---2-----2--
D|--2---------
A|-3----------
E|------------

F

E|------------
B|----1-0-----
G|---2-----2--
D|--3---------
A|-3----------
E|------------

Dm6

E|----1-
B|---3--
G|--2---
D|-3----
A|------
E|------

Esus4 E

(Ако не ви се свири мотива, акордите са Am, F, Dm6, E)

E|---------------------------
B|---------0-----1-----0-----
G|-------2-----2-----2-----2-
D|-2---2-----2-----2-----2---
A|---0-----------------------
E|---------------------------

E|-------------------------
B|-------0-----1-----0-----
G|-----2-----2-----2-----2-
D|---2-----2-----2-----2---
A|-0-----------------------
E|-------------------------

E|-------------------------
B|-------0-----1-----0-----
G|-----2-----2-----2-----2-
D|---2-----2-----2-----2---
A|-0-----------------------
E|-------------------------
   В дъжд            сняг и
E|-------------------------
B|-------0-----1-----0-----
G|-----2-----2-----2-----2-
D|---3-----3-----3-----3---
A|-0-----------------------
E|-------------------------
   мраз
E|-------------------------
B|-------0-----1-----0-----
G|-----2-----2-----2-----2-
D|---3-----3-----3-----3---
A|-2-----------------------
E|-------------------------
   и                 вятър
E|-------------------------
B|-------0-----1-----0-----
G|-----1-----1-----1-----1-
D|---2-----2-----2-----2---
A|-2-----------------------
E|-------------------------
студен
E|-------------------------
B|-------0-----1-----0-----
G|-----2-----2-----2-----2-
D|---2-----2-----2-----2---
A|-0-----------------------
E|-------------------------
   се                питам
E|-------------------------
B|-------0-----1-----0-----
G|-----2-----2-----2-----2-
D|---3-----3-----3-----3---
A|-0-----------------------
E|-------------------------
   аз
E|-------------------------
B|-------0-----1-----0-----
G|-----2-----2-----2-----2-
D|---3-----3-----3-----3---
A|-2-----------------------
E|-------------------------
   где               си в тоя

E
ден
Dm            Am
Чуй щом пролетта
Dm              Am
с вик открий света
B7      E
Ела при мен

  Am                Dm    Am
Повей повей скитнико ветре
         Dm6      Am
Ти знаеш где е той
         F
Ти знаеш где е той
     F7M/5- Esus4 E
Моят зов предай
  Am                 Dm    Am
Повей повей верни мой ветре
       Dm6        Am
И любовта край нас
       F       Am
И любовта край нас
     E   Am
Нека засияй

    G
Простри топла длан
  C
И път ни бъди
   B7
Върви в пролетта
       E
И ни води

  Am                 Dm    Am
Повей повей буйни мой ветре
        Dm6        Am
И всяка болка в нас
        F
И всяка болка в нас
       E    Am F
С обич разпилей

Bbm, Ebm, Bbm

        Ebm6       Bbm
И всяка болка в нас
        Gb
И всяка болка в нас
       F    Bbm
С обич разпилей

  Bbm
Повей повей
  Gb        Ebm
Повей повей
Fm    Bbm Db Gb Fsus4 F Bbm
Ветре мой


В случай, че се чудите за този акорд:

F7M/5- ---> E|-0-
            B|-0-
            G|-2-
            D|-3-
            A|-2-
            E|---



акорди за китара

акорди за пиано

видео клип


© 2007-2017 akordite.com - Акорди и таблатури на български песни

Вход






Забравена парола
Нямате достъп?
Регистрирайте се!!!

Последни песни



Статистика

Песни: 1411
Потребители: 12746

В момента онлайн: