[Всички песни]
[Скрий Акордите]
[Редактирай песента]

Печат
Гама
C : G : D : A : E : B : F# : C# : F : Bb : Eb : Ab : Db : Gb

Ти не дойде


Изпълнител: Кокомания

Изоартил: kelikandzer

Интро / Куплети:                                              

                                                        
e-----------------------------------------
B-----2---------3--------3---3-2h3h2p0----
G-----2---------4--------0-------------2--
D-----2------4----------------------------
A---0-----2-------------------------------
E------------------0--3-------------------
                       
                      
 
-----------------------0-h-2----------|
----2------3--------3--------3--2-----|
----2------4--------0--------------2--|
----2------4--------------------------|
-0-----2------------------------------|
-------------0--3---------------------|

И си мислех протегнала длани
Всички пътища твои ще хвана
Ще почукам на твоето сърце
И завинаги мое ще стане

И си мислех дори да греша
Ще отворя вратата последна
Ще излъжа аз твоята душа
                 G...
И до нея щастливо
Ще седна .. 

Интро:
                                                        
e------------------------------------------
B-----2---------3--------3---3-2h3h2p0-----
G-----2---------4--------0-------------2---
D-----2------4-----------------------------
A---0-----2--------------------------------
E------------------0--3--------------------


-------------------3--------------|
----2------3------3---------------|
----2------4-----0----------------|
----2------4----0-----------------|
-0-----2-------2------------------|
--------------3-------------------|
Припев:

D      A      G       A
Ти не дойде а аз те чаках      
D       A          G    A
Търсех теб търсех твоя глас
D         A     G       A
Ти остави само тъмна сянка
D           G      A      D
Аз си мислех ти ще дойдеш пак

И си мислех пристигнеш ли тук
Любовта ми надежда ще има
Но протегнах ръце аз към теб
И напразно зовях твоето име


акорди за китара

акорди за пиано

видео клип


© 2007-2017 akordite.com - Акорди и таблатури на български песни

Вход






Забравена парола
Нямате достъп?
Регистрирайте се!!!

Последни песни



Статистика

Песни: 1411
Потребители: 12561

В момента онлайн: