[Всички песни]
[Скрий Акордите]
[Редактирай песента]

Печат
Гама
Am : Em : Bm : F#m : C#m : G#m : D#m : A#m : Dm : Gm : Dm : Fm : Bbm : Ebm : Abm

Талисман


Изпълнител: Йорданка Христова

Изпратил: Jacsons

Интро

E-------0-1-0---------------------0/1-1-1-0-----------------
B-----1-1-3-1----3-0-3-0-3-3------0/3-3-3-1--3-3-1-1-0-0/1--
G---2-2----------4-1-4-1-4-4-----------------4-4-2-2-1-0/2--
D-2-2-------------------------------------------------------
A-3---------------------------------------------------------
E-----------------------------------------------------------

Am
E--------------------------------------0--0-1-0-----0--0-1-0--0--
B-0--1-3-------0-1---------0---------1-------------1----------1--
G-1--2-4----2--1-2----1--2-1---2---2-------------2------------2--
D-----------3---------0--2-----2------------------------------2--
A--------------------------------0-------------0--------------0--
E-------------------------------------------------------------0--

Bbm                      F
Без талисман не върви в живота,
                        Bbm
казват приятел е на доброто.
                         Ebm
Той пази хорската обич свята,
F                  Bbm
разнася щастие по земята.
                       Ab
А талисманът съм аз за тебе,
   Gb                   F
ти не разбра ли че няма време.
                         Ebm            F
Една любовна нощ пламва безнадеждна,
            Bbm
и двама ни обзема нежност.
              Ebm           F             Bbm
Амури втурват се край нас, райски хор за нас запяват.
                             Ebm                F
А вечността в миг към нас се приближава,
            Bbm
и светлината ни огрява,
          Ebm           F                 Bbm
и аз и нашите две сърца, в едно се сливат.
Припев :

 Bbm                 Ab             Gb                       F
Аз съм жената която чакаш, казват го твойте очи във мрака,
 Bbm                 Ab                Gb                           F
Аз съм жената която чакаш, казват твойте устни в страст и твоите ръце,
 Bbm                 Ab             Gb                        F
Аз съм жената която чакаш, казват го твойте очи във мрака,
 Bbm                 Ab                Gb         F     Bbm
Аз съм жената която чакаш, какво ще кажеш ти.

А талисманът съм аз за тебе,
ти не разбра ли, че няма време.
Без ревност няма любов голяма,
но аз съм верният път за двама.
Без талисман не живее никой,
защото иска да бъде с някой.

Една любовна нощ пламва безнадеждна,
и двама ни обзема нежност.
Амури втурват се край нас, райски хор за нас запяват.
А вечността в миг към нас се приближава,
и светлината ни огрява,
и аз и нашите две сърца, в едно се сливат.

Припев
                         Ebm              F
Една любовна нощ пламва безнадеждна,
           Bbm
и двама ни обзема нежност,
           Ebm           F                 Bbm
и аз и нашите две сърца, в едно се сливат.

Финал

Като първата част на итрото и ...   
                                                                       
E-------------------------------------
B-0--1-3-------0-1---------0-------
G-1--2-4----2--1-2----1--2-1---2--  Am Am Am
D-----------3---------0--2-----2--
A------------------------------------
E------------------------------------


акорди за китара

акорди за пиано

видео клип


© 2007-2017 akordite.com - Акорди и таблатури на български песни

Вход






Забравена парола
Нямате достъп?
Регистрирайте се!!!

Статистика

Песни: 1548
Потребители: 14493

В момента онлайн:

1 гост