[Всички песни]
[Скрий Акордите]
[Редактирай песента]

Печат
Гама
C : G : D : A : E : B : F# : C# : F : Bb : Eb : Ab : Db : Gb

Осъдени души


Изпълнител: Лили Иванова

Музика: Митко Щерев
Изпратил: Jacsons 


Intro

E-------0-------------------------5---0-1-3--1-0-----1-0---7---5-------
B-1-0------0-1-3--1-0-------1-0------------------3-------3-------9-----
G-----2---------------2---------2--------------------------------------

E-----------------------3-1-1-0-0---------------------------------------
B---6--5--------1-0-----------------------------------------------------
G---------7-5--------2--------------1-2---------------------------------

E----7-8-7---3-3-5--3-1-0---0-1-0-----0-1--0-1-0---0-1-0----0-1--0-1-0--
B-10------------------------------3-------3--------------3------3-------

E |---------------------------------------------------------------
B |-----------------------------------------------------0---------
G |-------------------------------2-----0-----------------2-2-1-1-
D |--------2-------0----------------2-3---3-2-0---3-2-0-----------
A |--3-2-0-----2-3---3-2-0--3-2-0---------------------------------
E |---------------------------------------------------------------

E |---------------------------------------------------------------
B |---------------------------------------------------------------
G |---------------------0---------1-2-----------------------------
D |-3-3-2-2-0-------------3-3-2-2---------------------------------
A |-----------3---3-2-0-------------------------------------------
E |---------------------------------------------------------------

Solo

E-----------0--0-1-1-0-0-0-------------------0-1-1-3-3-1-1-0-0--
B-1--0------------------4-----0--1--3--1-0----------------------
G-------2----------------------------------2--------------------

E---------5--5-6-6-5-5-4-5--0--1--3--1-0--5--6-6-8-8-6-6-5-5----
B-1--0-----------------------------------3----------------------
G-------2-------------------------------------------------------

E-1-0--7--5-5---------------------------3--1-1-0-0--------------
B-----3--------9-9--6-6-5-5--------1-0--------------------------
G----------------------------7-5-------2-------------1--2-------



Outro
                                Am
E-------0---------0--------0-----0-------0-5------
B-1-0------1-0-------1-0---------1-----1----------
G-----2---------2--------2-------2---2------------
D--------------------------------2----------------
A--------------------------------0--0-------------
E--------------------------------0----------------


акорди за китара

акорди за пиано

видео клип


© 2007-2017 akordite.com - Акорди и таблатури на български песни

Вход






Забравена парола
Нямате достъп?
Регистрирайте се!!!

Последни песни



Статистика

Песни: 1411
Потребители: 12561

В момента онлайн:

11 госта и 1 потребител
  • Kostadinova