[Всички песни]
[Скрий Акордите]
[Редактирай песента]

Печат
Гама
C : G : D : A : E : B : F# : C# : F : Bb : Eb : Ab : Db : Gb

Цветя от края на 80-те


Изпълнител: Ревю
Текст: В.Гюров
Музика: В.Гюров
Албум: РЕВЮ 88-89
Изпратил: dixy

Gtr I (E A D G) -

    Q=130
   4/4
    Gtr I
    E E E E E Q E E E E E E  E  E E  4x
||----7-9-7---7-7---7-9-7---10-10-9--||
||o-7-------8-----7-------8---------o||
||o---------------------------------o||
||-----------------------------------||


     E  E  E  E  E  E  E  E  E  E  E  E  E  E  E  E 11x
||--14-------14-------14-------17-------17----16-16--||
||o-12-12-12-12-12-12-12-12-12-15-15-15-15-15-14-14-o||
||o-------------------------------------------------o||
||---------------------------------------------------|
||-----------------------------------||
||o---------------------------------o||
||o-5-5-5-5-5-5-5-5-1-1-1-1-1-1-1-1-o||
||-----------------------------------||


     E  E  E  E  E  E  E  E   E  E  E  E  E  E  E  E  8x
||--14-------14-------14--------17-------17----16-16--||
||o-12-12-12-12-12-12-12-12--12-15-15-15-15-15-14-14-o||
||o--------------------------------------------------o||
||----------------------------------------------------||


    E E E E E E E E  E E E E E E E E  4x
||------------------------------------||
||o----------------------------------o||
||o-5-5-5-5-5-5-5-5--1-1-1-1-1-1-1-1-o||
||------------------------------------||


    S S S E S E E E E E  S S S E S E E E E E
||----------------------------------------------|
||o---------------------------------------------|
||o---------------------------------------------|
||--3-3-3-3-3-3-3-3-3-3--3-3-3-3-3-3-3-3-3-3----|


  S S S E S E E E E E  S S S E S E E E E E  3x
|-------------------------------------------||
|------------------------------------------o||
|-5-5-5-5-5-5-5-5-5-5--5-5-5-5-5-5-5-5-5-5-o||
|-------------------------------------------||


  S S S E S E E E E E  S S S E S E E E E E
|---------------------------------------------|
|---------------------------------------------|
|---------------------------------------------|
|-3-3-3-3-3-3-3-3-3-3--3-3-3-3-3-3-3-3-3-3----|


  W
|------|
|------|
|-5----|
|------|




акорди за китара

акорди за пиано

видео клип


© 2007-2017 akordite.com - Акорди и таблатури на български песни

Вход






Забравена парола
Нямате достъп?
Регистрирайте се!!!

Последни песни



Статистика

Песни: 1411
Потребители: 12743

В момента онлайн:

11 госта и 2 потребителя
  • Emnima
  • Гепето