[Всички песни]
[Скрий Акордите]
[Редактирай песента]

Печат
Гама
C : G : D : A : E : B : F# : C# : F : Bb : Eb : Ab : Db : Gb

Ралица


Изпълнител: Ревю
Текст: К.Манчев
Музика: К.Манчев,К.Карабойчев,В.Гюров
Албум: РЕВЮ 88-89
Изпратил: dixy


Gtr I (E A D G) - 
    Q=160
 4/4
  Gtr I
  W            W        W  4x
|----------||--------------||
|----------||o------------o||
|----------||o-2--------0-o||
|----------||--------------||


    E  E  E  E  E  E  E  E  E  E  E  Q  E  E  E  4x
||-----------------------------------------------||
||o-------------5--5--5--5--4--4--5--4--5--4----o||
||o-2--2--2--2--------------------------------5-o||
||-----------------------------------------------||


    E E E E E E E E E E E E E E E E  3x
||-----------------------------------||
||o---------------------------------o||
||o-0-0-0-0-0-0-0-0-2-2-2-2-2-2-2-2-o||
||-----------------------------------||


  E E E E E E E E E E E E E E E E
|------------------------------------|
|------------------------------------|
|-0-0-0-0-0-0-0-0--------------------|
|-----------------3-3-3-3-5-5-5-5----|


    E  E  E  E E  E  E  E  E  E  E  Q  E  E  E  8x
||----------------------------------------------||
||o------------5--5--5--5--4--4--5--4--5--4----o||
||o-2--2--2--2-------------------------------5-o||
||----------------------------------------------||


    E E E E E E E E  E E E E E E E E  3x
||------------------------------------||
||o----------------------------------o||
||o-0-0-0-0-0-0-0-0--2-2-2-2-2-2-2-2-o||
||------------------------------------||


  E E E E E E E E  E E E E E E E E
|-------------------------------------|
|-------------------------------------|
|-0-0-0-0-0-0-0-0---------------------|
|------------------3-3-3-3-5-5-5-5----|


    H    H    W  8x
||---------------||
||o------5----4-o||
||o-2-----------o||
||---------------||


    E  E  E  E  E  E  E  E   E  E  E  Q   E  E  E  4x
||-------------------------------------------------||
||o-------------5--5--5--5---4--4--5--4---5--4----o||
||o-2--2--2--2----------------------------------5-o||
||-------------------------------------------------||


    E E E E E E E E  E E E E E E E E  3x
||------------------------------------||
||o----------------------------------o||
||o-0-0-0-0-0-0-0-0--2-2-2-2-2-2-2-2-o||
||------------------------------------||


  E E E E E E E E  E E E E E E E E
|-------------------------------------|
|-------------------------------------|
|-0-0-0-0-0-0-0-0---------------------|
|------------------3-3-3-3-5-5-5-5----|


    E  E   E  E  E  E  E  E   E  E  E  Q   E  E  E  8x
||--------------------------------------------------||
||o--------------5--5--5--5---4--4--5--4---5--4----o||
||o-2--2---2--2----------------------------------5-o||
||--------------------------------------------------||


    E E E E E E E E  E E E E E E E E  3x
||------------------------------------||
||o----------------------------------o||
||o-0-0-0-0-0-0-0-0--2-2-2-2-2-2-2-2-o||
||------------------------------------||


  E E E E E E E E  E E E E E E E E
|-------------------------------------|
|-------------------------------------|
|-0-0-0-0-0-0-0-0---------------------|
|------------------3-3-3-3-5-5-5-5----|


    H    H     W  8x
||----------------||
||o------5-----4-o||
||o-2------------o||
||----------------||


    E E E E E E E E E E E E E E E E  4x W
||-----------------------------------||------|
||o---------------------------------o||------|
||o-2-2-2-2-2-2-2-2-0-0-0-0-0-0-0-0-o||-2----|
||-----------------------------------||------|


акорди за китара

акорди за пиано

видео клип


© 2007-2017 akordite.com - Акорди и таблатури на български песни

Вход






Забравена парола
Нямате достъп?
Регистрирайте се!!!

Последни песни



Статистика

Песни: 1411
Потребители: 12743

В момента онлайн: