[Всички песни]
[Скрий Акордите]
[Редактирай песента]

Печат
Гама
C : G : D : A : E : B : F# : C# : F : Bb : Eb : Ab : Db : Gb

Ала-бала


Изпълнител: Ревю
Текст: В.ГюровMusic by Б .Карабойчев,К.Манчев
Музика: Ревю
Албум: РЕВЮ 88-89
Изпратил: dixy


Gtr I (E A D G) - 'Untitled'

  Q=180
 4/4
  Gtr I
  Wx8
|--------|
|--------|
|--------|
|--------|


    Q E E E E E E E E Q.  H E E E  E  E  E  E  E  E   Q.  Q.
||------------------------------------------------------------||
||o----------------------------------------------------------o||
||o---7-7-----7-7-9-9-6---6---9-9-11-11----------------------o||
||--------9-9---------------------------12-12-11-12---9---9---||


  Q     E E E E E E  E E Q.   H     E E E  E  E  E  E  E   E Q.   H E  4x
|---||-----------------------------------------------------------------||
|---||o---------------------------------------------------------------o||
|---||o-7-7-----7-7--9-9-6----6-------9-9-11-11-----------------------o||
|---||------9-9---------------------------------12-12-11--12-9----9----||


  E E E E E E E E E E E E E E E E     E E E E E E E E E E E E E E E E
|---------------------------------||-----------------------------------||
|---------------------------------||o---------------------------------o||
|-2-2-2-2-2-2-2-2-4-4-4-4-4-4-4-4-||o-2-2---2-2-2---2-4-4---4-4-4---4-o||
|---------------------------------||-----------------------------------||


  E E E E E E E E Q  Q  W        H
|-------------------------------------|
|-------------------------------------|
|-------------------------------------|
|-0-0-0-0-0-0-0-0-4--4----------------|


      Q E E E E E E  E E Q.   H     E E E  E  E  E  E  E   E Q.   Q.
|-||-------------------------------------------------------------------||
|-||o-----------------------------------------------------------------o||
|-||o---7-7-----7-7--9-9-6----6-------9-9-11-11-----------------------o||
|-||--------9-9---------------------------------12-12-11--12-9----9----||


  Q     E E E E E E E E  Q.   H    E  E E  E  E  E  E  E  E  Q.   H E  4x
|---||-----------------------------------------------------------------||
|---||o---------------------------------------------------------------o||
|---||o-7-7-----7-7-9-9--6----6-------9-9-11-11-----------------------o||
|---||------9-9---------------------------------12-12-11-12--9----9----||


  E E E E E E E E  E E E E E E E E     E E E E E E E E  E E E E E E E E
|----------------------------------||------------------------------------||
|----------------------------------||o----------------------------------o||
|-2-2-2-2-2-2-2-2--4-4-4-4-4-4-4-4-||o-2-2---2-2-2---2--4-4---4-4-4---4-o||
|----------------------------------||------------------------------------||


  E E E E E E E E  Q  Q H
|----------------------------|
|----------------------------|
|----------------------------|
|-0-0-0-0-0-0-0-0--4--4------|


  E E E E E E E E W         E E E E E E E E W
|------------------------------------------------|
|-----7---6---------------------7---6------------|
|-4-7---7---7-6-7-----------4-7---7---7-6-7------|
|------------------------------------------------|


  E E E E E E E E W          E E E E E E E E W
|--------------------------|----------------------|
|-----7---6----------------|-----7---6------------|
|-4-7---7---7-6-7----------|-4-7---7---7-6-7------|
|--------------------------|----------------------|


  Q     E E E E E E E E  Q.   H    E  E E  E  E  E  E  E  E  Q.   H E  6x
|---||-----------------------------------------------------------------||
|---||o---------------------------------------------------------------o||
|---||o-7-7-----7-7-9-9--6----6-------9-9-11-11-----------------------o||
|---||------9-9---------------------------------12-12-11-12--9----9----||


  E E E E E E E E  E E E E E E E E     E E E E E E E E  E E E E E E E E
|----------------------------------||------------------------------------||
|----------------------------------||o----------------------------------o||
|-2-2-2-2-2-2-2-2--4-4-4-4-4-4-4-4-||o-2-2---2-2-2---2--4-4---4-4-4---4-o||
|----------------------------------||------------------------------------||


  E E E E E E E E  Q  Q  H    W
|----------------------------------|
|----------------------------------|
|----------------------------------|
|-0-0-0-0-0-0-0-0--4--4------------|


  Q     E E E E E E E E  Q.   H    E  E E  E  E  E  E  E  E  Q.   H E  6x
|---||-----------------------------------------------------------------||
|---||o---------------------------------------------------------------o||
|---||o-7-7-----7-7-9-9--6----6-------9-9-11-11-----------------------o||
|---||------9-9---------------------------------12-12-11-12--9----9----||


  E E E E E E E E  E E E E E E E E     E E E E E E E E  E E E E E E E E
|----------------------------------||------------------------------------||
|----------------------------------||o----------------------------------o||
|-2-2-2-2-2-2-2-2--4-4-4-4-4-4-4-4-||o-2-2---2-2-2---2--4-4---4-4-4---4-o||
|----------------------------------||------------------------------------||


  E E E E E E E E  Q  Q  H
|-----------------------------|
|-----------------------------|
|-----------------------------|
|-0-0-0-0-0-0-0-0--4--4-------|


    E E E E E E E E  Q.   H    E  E E  E  E  E  E  E  E  Q.   H E  4x
||-----------------------------------------------------------------||
||o---------------------------------------------------------------o||
||o-7-7-----7-7-9-9--6----6-------9-9-11-11-----------------------o||
||------9-9---------------------------------12-12-11-12--9----9----||


  E E E E E E E E  E E E E E E E E     E E E E E E E E  E E E E E E E E
|----------------------------------||------------------------------------||
|----------------------------------||o----------------------------------o||
|-2-2-2-2-2-2-2-2--4-4-4-4-4-4-4-4-||o-2-2---2-2-2---2--4-4---4-4-4---4-o||
|----------------------------------||------------------------------------||


  E E E E E E E E  Q  H
|--------------------------|
|--------------------------|
|--------------------------|
|-0-0-0-0-0-0-0-0--4--4----|


акорди за китара

акорди за пиано

видео клип


© 2007-2016 akordite.com - Акорди и таблатури на български песни

Вход






Забравена парола
Нямате достъп?
Регистрирайте се!!!

Статистика

Песни: 1335
Потребители: 11227

В момента онлайн:

1 гост