[Всички песни]
[Скрий Акордите]
[Редактирай песента]

Печат
Гама
C : G : D : A : E : B : F# : C# : F : Bb : Eb : Ab : Db : Gb

Бира


Изпълнител: Хиподил

Изпратил: z_pavlov@bitex.bg


e||-------------------|-------------------|-------------------|
B||o------------------|------------------o|o------------------|
G||-------------------|-------------------|-------------------|
D||-------------------|-------------------|--7---7-7----------|
A||o-5---5-5-0-0-0-0--|--3-3-3-3---------o|o-5---5-5-7-7-7-7--|
E||-------------------|----------3-3-3-3--|----------5-5-5-5--|
          Play 4 times                            Play 4 times
e||-------------------|-------------------|-------------------|
B||------------------o|o------------------|------------------o|
G||-------------------|-------------------|-------------------|
D||--5-5-5-5----------|----------3-3-3-3--|----------5-5-5-5--|
A||--3-3-3-3-5-5-5-5-o|o-3---3-3-1-1-1-1--|--5-5-5-5-3-3-3-3-o|
E||----------3-3-3-3--|--1---1-1----------|--3-3-3-3----------|

e||-------------------|-------------------|-------------------|
B||-------------------|-------------------|-------------------|
G||-------------------|-------------------|-------------------|
D||-------------------|-------------------|-------------------|
A||-------------------|-----------3---2---|---1---0-----------|
E||---3---2---1---0---|---3---2-----------|-----------3---2---|
      .
e||-------------------|-------------------|-------------------|
B||-------------------|-------------------|-------------------|
G||-------------------|-------------------|-------------------|
D||---5-------5---5---|-------4---5---4---|---5-------4---5---|
A||---3-------3---3---|-------2---3---2---|---3-------2---3---|
E||-------------------|-------------------|-------------------|
                                                  Play 4 times
e||-------------------|-------------------|-------------------|
B||-------------------|o------------------|------------------o|
G||-------------------|-------------------|-------------------|
D||-------4---5---4---|--7---7-7----------|--5-5-5-5----------|
A||-------2---3---2---|o-5---5-5-7-7-7-7--|--3-3-3-3-5-5-5-5-o|
E||-------------------|----------5-5-5-5--|----------3-3-3-3--|
                              Play 4 times
e||-------------------|-------------------|-------------------|
B||o------------------|------------------o|-------------------|
G||-------------------|-------------------|-------------------|
D||----------3-3-3-3--|----------5-5-5-5--|-------------------|
A||o-3---3-3-1-1-1-1--|--5-5-5-5-3-3-3-3-o|-------------------|
E||--1---1-1----------|--3-3-3-3----------|---3---2---1---0---|
                                              .
e||-------------------|-------------------|-------------------|
B||-------------------|-------------------|-------------------|
G||-------------------|-------------------|-------------------|
D||-------------------|-------------------|---5-------5---5---|
A||-----------3---2---|---1---0-----------|---3-------3---3---|
E||---3---2-----------|-----------3---2---|-------------------|

e||-------------------|-------------------|-------------------|
B||-------------------|-------------------|-------------------|
G||-------------------|-------------------|-------------------|
D||-------4---5---4---|---5-------4---5---|-------4---5---4---|
A||-------2---3---2---|---3-------2---3---|-------2---3---2---|
E||-------------------|-------------------|-------------------|
                              Play 4 times Play slowly...
e||-------------------|-------------------|-------------------|
B||o------------------|------------------o|o------------------|
G||-------------------|-------------------|-------------------|
D||--7---7-7----------|--5-5-5-5----------|----------3---3-3--|
A||o-5---5-5-7-7-7-7--|--3-3-3-3-5-5-5-5-o|o-3-3-3-3-1---1-1--|
E||----------5-5-5-5--|----------3-3-3-3--|--1-1-1-1----------|
                                            |P.M....|
          Play ? times                            Play ? times
e||-------------------|-------------------|-------------------|
B||------------------o|o------------------|------------------o|
G||-------------------|-------------------|-------------------|
D||--------5---5-5-5--|----------3-3-3-3--|----------5-5-5-5--|
A||--5-5-5-3---3-3-3-o|o-3-3-3-3-1-1-1-1--|--5-5-5-5-3-3-3-3-o|
E||--3-3-3------------|--1-1-1-1----------|--3-3-3-3----------|
    |P.M..|
e||-------------------|-------------------||
B||-------------------|-------------------||
G||-------------------|-------------------||
D||----------3-3-3-3--|----------5-5------||
A||--3-3-3-3-1-1-1-1--|--5-5-5-5-3-3------||
E||--1-1-1-1----------|--3-3-3-3----------|

акорди за китара

акорди за пиано

© 2007-2017 akordite.com - Акорди и таблатури на български песни

Вход






Забравена парола
Нямате достъп?
Регистрирайте се!!!

Последни песни



Статистика

Песни: 1411
Потребители: 12548

В момента онлайн:

4 госта