[Всички песни]
[Скрий Акордите]
[Редактирай песента]

Печат
Гама
C : G : D : A : E : B : F# : C# : F : Bb : Eb : Ab : Db : Gb

Цветя от края на 80-те


Изпълнител: Ревю
Текст: В.Гюров
Музика: В.Гюров
Албум: РЕВЮ 88-89
Изпратил: dixy

Gtr I (E A D G B E) - 'Untitled'

  Q=130
 4/4

    Gtr I
     Q.   H.   H..  3x
||------------------||
||o-----------15---o||
||-------14---------||
||--12--------------||
||o----------------o||
||------------------||


     Q.   W E       Q   Q   Q.   W. E   Q.  W E  Q  Q  Q. W. E
||--------------------------------------------------------------||
||o------------------------------------------------------------o||
||-------10---------------------10---------10-------------------||
||--12-------------12--10--12----------12-------12-10-12--7-----||
||o------------------------------------------------------------o||
||--------------------------------------------------------------||


    E Q  E Q  E Q   E E   E  E E E E  4x
||------------------------------------||
||o----------------------------------o||
||-----------------10----10-10---9----||
||--7----7----7-----8-----8--8---8----||
||o-5----5----5----------------------o||
||------------------------------------||


    Gtr I
     Q.   W E        Q   Q   Q.   W. E   Q.  W  E  Q  Q  Q. W. E
||----------------------------------------------------------------||
||o--------------------------------------------------------------o||
||-------10----------------------10---------10--------------------||
||--12--------------12--10--12----------12--------12-10-12--7-----||
||o--------------------------------------------------------------o||
||----------------------------------------------------------------||


    E Q  E Q  E Q   E E  E  E E E E  4x
||-----------------------------------||
||o---------------------------------o||
||-----------------10---10-10---9----||
||--7----7----7-----8----8--8---8----||
||o-5----5----5---------------------o||
||-----------------------------------||


    Q.  Q.  Q.  Q.  Q  Q  E  W  H.. Q.  Q.  Q.  Q.  Q  Q  W. H
||--------------------------------------------------------------||
||o------------------------------------------------------------o||
||--------------------------------------------------------------||
||--5---7--------------5--7---------5---7--------------5--7-----||
||o---------8---7---8--------5--------------8---7---8----------o||
||--------------------------------------------------------------||

стая скрита от закона,
чиновник благ реди цветя,
шепи тръпнещи в наслада,
пълнят вазата с боза.

И всичко, без да разбере,
че по добре е да умре. /3

Горещ е въздуха над нашите градини,
но дълго ще мълчим,
свикнали от години,
мъка да търпим.

Припев: Благодаря на всички цветя!

В квадрати стегнати крила,
увяхват бавно по едно
и смисълът от светлина,
загива с първото перо.

Припев: ...

Във целофан от гъста мрежа,
ще пазим нашите деца,
защото тръните са угоени,
специално за целта - борба.

Припев: ...

Цветя от края от края на 80те. /2




акорди за китара

акорди за пиано

видео клип


© 2007-2017 akordite.com - Акорди и таблатури на български песни

Вход






Забравена парола
Нямате достъп?
Регистрирайте се!!!

Последни песни



Статистика

Песни: 1411
Потребители: 12743

В момента онлайн:

12 госта и 2 потребителя
  • Emnima
  • Гепето