[Всички песни]
[Скрий Акордите]
[Редактирай песента]

Печат
Гама
C : G : D : A : E : B : F# : C# : F : Bb : Eb : Ab : Db : Gb

Чичо


Изпълнител: Ревю
Текст: В.Гюров
Музика: В.Гюров
Албум: РЕВЮ 88-89
Изпратил: dixy

  Q=200
 4/4
  Gtr I
  W    W    W    W    E E H. E E H. E E H. E E H.
|---------------------5-5----5-5----5-5----5-5-------|
|---------------------5-5----5-5----5-5----5-5-------|
|---------------------5-5----5-5----5-5----5-5-------|
|---------------------7-7----7-7----7-7----7-7-------|
|---------------------7-7----7-7----7-7----7-7-------|
|---------------------5-5----5-5----5-5----5-5-------|


  E E H.  E E H. E E H.  E E  H.
|-5-5-----5-5----5-5-----5-5--------------------|
|-5-5-----5-5----5-5-----5-5--------------------|
|-5-5-----5-5----5-5-----5-5--------------------|
|-7-7-----7-7----7-7-----7-7--------------------|
|-7-7-----7-7----7-7-----7-7--------------------|
|-5-5-----5-5----5-5-----5-5--------------------|
|
| Gtr II
|   Q Q   Q E Q  Q E E   E E  E  Q E E  E  Q Q.
|-----------------------------------------------|
|-----------------------------------------------|
|-------------7--7-9-7--------------------------|
|---7-7--10-7-----------10-7-----7-7---------7--|
|----------------------------10------7-10-10----|
|-----------------------------------------------|


   E E H.  E E H.   H    H    E E H.
|--5-5-----5-5------1----3----5-5---------------|
|--5-5-----5-5------1----3----5-5---------------|
|--5-5-----5-5------2----4----5-5---------------|
|--7-7-----7-7------3----5----7-7---------------|
|--7-7-----7-7------3----5----7-7---------------|
|--5-5-----5-5------1----3----5-5---------------|
| 
  GtrII
|    Q Q   Q E Q  Q E E  E E  E Q E  E  E  Q Q.
|-----------------------------------------------|
|-----------------------------------------------|
|--------------7--7-9-7-------------------------|
|----7-7--10-7----------10-7-----------------7--|
|----------------------------10-8-8--8-10-10----|
|-----------------------------------------------|


  E E H.           E E H.          E  E H.           E E H.
|-5-5--------------5-5-------------5--5--------------5-5----------------|
|-5-5--------------5-5-------------5--5--------------5-5----------------|
|-5-5--------------5-5-------------5--5--------------5-5----------------|
|-7-7--------------7-7-------------7--7--------------7-7----------------|
|-7-7--------------7-7-------------7--7--------------7-7----------------|
|-5-5--------------5-5-------------5--5--------------5-5----------------|
|
|  GrtII
      Q  Q   Q  E   Q   Q  E  E    E    E   E  Q  E   E    E   Q  Q.
|-----------------------------------------------------------------------|
|-----------------------------------------------------------------------|
|----------------------7---7--9--7--------------------------------------|
|--------7--7--10--7-----------------10----7------7--7---------------7--|
|---------------------------------------------10---------7---10--10-----|
|-----------------------------------------------------------------------|


   E E H.           E E H.           H       H       E E    H.
|--5-5--------------5-5--------------1-------3-------5-5-------------|
|--5-5--------------5-5--------------1-------3-------5-5-------------|
|--5-5--------------5-5--------------2-------4-------5-5-------------|
|--7-7--------------7-7--------------3-------5-------7-7-------------|
|--7-7--------------7-7--------------3-------5-------7-7-------------|
|--5-5--------------5-5--------------1-------3-------5-5-------------|
|
  GtrII
|    Q    Q   Q  E  Q   Q   E  E   E   E   E   Q  E  E    E     Q Q.
|--------------------------------------------------------------------|
|--------------------------------------------------------------------|
|-------------------7---7---9--7-------------------------------------|
|----7----7--10--7----------------10---7--------------------------7--|
|-----------------------------------------10---8--8--8---10----10----|
|--------------------------------------------------------------------|

Размърдай мозъка си чичо,
досадно ти е знам, нали?
Кажи ми според тебе,
ако "си падна" пак ли ще боли?

Дали капачката запушва всичко,
как виното е сухо щом тече,
кажи ми що е авангарда
и цензурата може ли да се яде.

Припев: Ех, ако можех аз да съм чичо,
а чичо ти да си дете,
щеше са викаш колкото искаш,
без никой да те разбере.

А, чичо, другите ме питат,
дали страхът ще победи?
- Не знам, но мене ако питаш,
стени не се разбиват с глави.

Припев: ...

Аз, чичо, мога още да те питам,
но мислиш ли, че е добре,
децата щом не знаят питат,
май е по-добре да си дете.

Припев: ...



акорди за китара

акорди за пиано

видео клип


© 2007-2017 akordite.com - Акорди и таблатури на български песни

Вход






Забравена парола
Нямате достъп?
Регистрирайте се!!!

Последни песни



Статистика

Песни: 1411
Потребители: 12743

В момента онлайн:

13 госта