[Всички песни]
[Скрий Акордите]
[Редактирай песента]

Печат
Гама
C : G : D : A : E : B : F# : C# : F : Bb : Eb : Ab : Db : Gb

Ралица


Изпълнител: Ревю
Текст: К.Манчев
Музика: К.Манчев,К.Карабойчев,В.Гюров
Албум: РЕВЮ 88-89
Изпратил: dixy

Gtr I (E A D G B E) - 'Untitled'
Gtr II (E A D G B E) - 'Untitled'

  Q=160
 4/4
  Gtr I
   Q
|--------|
|--------|
|-16\----|
|--------|
|--------|
|--------|


    E E E E E E E E  E E E Q  E E E  3x
||-----------------------------------||
||o---------------------------------o||
||--4-4-7-4-----7--------7----7---6--||
||----------5-5---5--7-7---7----7----||
||o---------------------------------o||
||-----------------------------------||


  E E E E E E E E  E E E Q  E E E
|------------------------------------|
|------------------------------------|
|-4-4-7-4-----7--------7----7-6------|
|---------5-5---5--7-7---7------7----|
|------------------------------------|
|------------------------------------|


    Q Q E E E E E E E Q E E E  3x
||----7------------------------||
||o---7-------------7---------o||
||----7-----7---------6-7-6----||
||--9---5-5---5-7-7---------7--||
||o---------------------------o||
||-----------------------------||


  Q  Q  E E E E  E E E E E E E E
|----7------------------------------|
|----7-------------------7-7--------|
|----7------7--------6-6-----6-6----|
|-9-----5-5---5--7-7----------------|
|-----------------------------------|
|-----------------------------------|


    Gtr I
  Q  Q    Q   Q     Q  Q   Q   Q   Q   Q    Q  Q   Q   E E  Q  E E
|----5--------5--------7-------7-------5-------5-------7-7-----7-7----|
|----5--------5--------7-------7-------5-------5-------7-7-----7-7----|
|----6--------6--------7-------7-------6-------6-------7-7-----7-7----|
|----7--------7--------9-------9-------7-------7-------9-9-----9-9----|
|---------------------------------------------------------------------|
|---------------------------------------------------------------------|
|
| Gtr II
| H     E E Q    H     E E Q   H     E E  Q
|---------------------------------------------------------------------|
|---------------------------------------------------------------------|
|-------6-6------------7-7-----------9-9------------------------------|
|-----------7--------------9-------------11---------------------------|
|---------------------------------------------------------------------|
|---------------------------------------------------------------------|


  Gtr I
  Q   Q  Q    Q  Q    Q  Q    Q   Q   Q  Q   Q   Q     E E  Q   E E
|-----5-------5-------7-------7-------5------5---------3-3------5-5----|
|-----5-------5-------7-------7-------5------5---------3-3------5-5----|
|-----6-------6-------7-------7-------6------6---------4-4------6-6----|
|-----7-------7-------9-------9-------7------7---------5-5------7-7----|
|----------------------------------------------------------------------|
|----------------------------------------------------------------------|
|
| Gtr II
| H      E E  Q    H       E  E Q     H        E E  Q
|----------------------------------------------------------------------|
|----------------------------------------------------------------------|
|--------6-6---------------7--7----------------9-9---------------------|
|-------------7-----------------9------------------11------------------|
|----------------------------------------------------------------------|
|----------------------------------------------------------------------|


    Gtr I
    E E E E E E E E  E E E Q  E E E  3x
||-----------------------------------||
||o---------------------------------o||
||--4-4-7-4-----7--------7----7---6--||
||----------5-5---5--7-7---7----7----||
||o---------------------------------o||
||-----------------------------------||


  E E E E E E E E  E E E Q  E E E
|------------------------------------|
|------------------------------------|
|-4-4-7-4-----7--------7----7-6------|
|---------5-5---5--7-7---7------7----|
|------------------------------------|
|------------------------------------|


    Q  Q  E E E E  E E E Q  E E E  3x
||-----7---------------------------||
||o----7---------------7----------o||
||-----7------7----------6--7-6----||
||--9-----5-5---5--7-7----------7--||
||o-------------------------------o||
||---------------------------------||


  Q  Q  E E E E  E E E E E E E E
|----7------------------------------|
|----7-------------------7-7--------|
|----7------7--------6-6-----6-6----|
|-9-----5-5---5--7-7----------------|
|-----------------------------------|
|-----------------------------------|


    Gtr I
  Q  Q  Q   Q     Q  Q   Q   Q    Q  Q   Q    Q   Q  E E Q  E E
|----5------5--------7-------7-------5--------5------7-7----7-7----|
|----5------5--------7-------7-------5--------5------7-7----7-7----|
|----6------6--------7-------7-------6--------6------7-7----7-7----|
|----7------7--------9-------9-------7--------7------9-9----9-9----|
|------------------------------------------------------------------|
|------------------------------------------------------------------|
|
| Gtr II
| H     E E Q   H      E E Q    H      E E  Q
|------------------------------------------------------------------|
|------------------------------------------------------------------|
|-------6-6------------7-7-------------9-9-------------------------|
|-----------7--------------9---------------11----------------------|
|------------------------------------------------------------------|
|------------------------------------------------------------------|


    Gtr I
  Q  Q  Q   Q   Q  Q  Q   Q   Q  Q  Q    Q   Q  E E Q  E E
|----5------5------7------7------5-------5------3-3----5-5---|
|----5------5------7------7------5-------5------3-3----5-5---|
|----6------6------7------7------6-------6------4-4----6-6---|
|----7------7------9------9------7-------7------5-5----7-7---|
|------------------------------------------------------------|
|------------------------------------------------------------|
|
| Gtr II
| H     E E Q   H     E E Q   H     E E  Q
|------------------------------------------------------------|
|------------------------------------------------------------|
|-------6-6-----------7-7-----------9-9----------------------|
|-----------7-------------9-------------11-------------------|
|------------------------------------------------------------|
|------------------------------------------------------------|


    E E E Q.  Q.  E  E E E E  E E E E E Q.   Q
||--7---------------10---9------------------------|
||o---7----------------------10---7-----8----7----|
||------7-9---7---7----7---7----7---7-------------|
||------------------------------------9-----------|
||o-----------------------------------------------|
||------------------------------------------------|


  Q  E E E E E E  4x
|-----------------||
|----------------o||
|-6--9-6-7-9-7-6--||
|-----------------||
|----------------o||
|-----------------||


    Q  Q  E E E E  E E E Q  E E E  3x
||-----7---------------------------||
||o----7---------------7----------o||
||-----7------7----------6--7-6----||
||--9-----5-5---5--7-7----------7--||
||o-------------------------------o||
||---------------------------------||


  Q  Q  E E E E  E E E E E E E E
|----7------------------------------|
|----7-------------------7-7--------|
|----7------7--------6-6-----6-6----|
|-9-----5-5---5--7-7----------------|
|-----------------------------------|
|-----------------------------------|


    Gtr I
  Q  Q  Q   Q   Q  Q  Q   Q   Q  Q  Q    Q   Q  E E Q  E E
|----5------5------7------7------5-------5------7-7----7-7----|
|----5------5------7------7------5-------5------7-7----7-7----|
|----6------6------7------7------6-------6------7-7----7-7----|
|----7------7------9------9------7-------7------9-9----9-9----|
|-------------------------------------------------------------|
|-------------------------------------------------------------|
|
| Gtr II
| H     E E Q   H     E E Q   H     E E  Q
|-------------------------------------------------------------|
|-------------------------------------------------------------|
|-------6-6-----------7-7-----------9-9-----------------------|
|-----------7-------------9-------------11--------------------|
|-------------------------------------------------------------|
|-------------------------------------------------------------|


  Q  Q  Q   Q   Q  Q  Q   Q    Q  Q   Q    Q   Q  E E Q  E E
|----5------5------7------7-------5--------5------3-3----5-5----|
|----5------5------7------7-------5--------5------3-3----5-5----|
|----6------6------7------7-------6--------6------4-4----6-6----|
|----7------7------9------9-------7--------7------5-5----7-7----|
|---------------------------------------------------------------|
|---------------------------------------------------------------|
|
| H     E E Q   H     E E Q  H      E E  Q
|---------------------------------------------------------------|
|---------------------------------------------------------------|
|-------6-6-----------7-7-----------9-9-------------------------|
|-----------7-------------9-------------11----------------------|
|---------------------------------------------------------------|
|---------------------------------------------------------------|


    E E E E E E E E  E E E Q  E E E  3x
||-----------------------------------||
||o---------------------------------o||
||--4-4-7-4-----7--------7----7---6--||
||----------5-5---5--7-7---7----7----||
||o---------------------------------o||
||-----------------------------------||


  E E E E E E E E  E E E Q  E E E
|------------------------------------|
|------------------------------------|
|-4-4-7-4-----7--------7----7-6------|
|---------5-5---5--7-7---7------7----|
|------------------------------------|
|------------------------------------|


    Q  Q  E E E E  E E E Q  E E E  3x
||-----7---------------------------||
||o----7---------------7----------o||
||-----7------7----------6--7-6----||
||--9-----5-5---5--7-7----------7--||
||o-------------------------------o||
||---------------------------------||


  Q  Q  E E E E  E E E E E E E E
|----7------------------------------|
|----7-------------------7-7--------|
|----7------7--------6-6-----6-6----|
|-9-----5-5---5--7-7----------------|
|-----------------------------------|
|-----------------------------------|


  Q  Q  Q   Q   Q  Q  Q   Q   Q  Q  Q    Q   Q  E E Q  E E
|----5------5------7------7------5-------5------7-7----7-7----|
|----5------5------7------7------5-------5------7-7----7-7----|
|----6------6------7------7------6-------6------7-7----7-7----|
|----7------7------9------9------7-------7------9-9----9-9----|
|-------------------------------------------------------------|
|-------------------------------------------------------------|
|
| H     E E Q   H     E E Q   H     E E  Q
|-------------------------------------------------------------|
|-------------------------------------------------------------|
|-------6-6-----------7-7-----------9-9-----------------------|
|-----------7-------------9-------------11--------------------|
|-------------------------------------------------------------|
|-------------------------------------------------------------|


  Q  Q  Q   Q   Q  Q  Q   Q   Q  Q  Q    Q   Q  E E Q  E E
|----5------5------7------7------5-------5------3-3----5-5----|
|----5------5------7------7------5-------5------3-3----5-5----|
|----6------6------7------7------6-------6------4-4----6-6----|
|----7------7------9------9------7-------7------5-5----7-7----|
|-------------------------------------------------------------|
|-------------------------------------------------------------|
|
| H     E E Q   H     E E Q   H     E E  Q
|-------------------------------------------------------------|
|-------------------------------------------------------------|
|-------6-6-----------7-7-----------9-9-----------------------|
|-----------7-------------9-------------11--------------------|
|-------------------------------------------------------------|
|-------------------------------------------------------------|


    E E E Q.   Q.    E  E E E E  E E E  E E Q.   Q
||--7------------------10---9-------------------------|
||o---7-------------------------10---7------8----7----|
||------7-9----7-----7----7---7----7----7-------------|
||----------------------------------------9-----------|
||o---------------------------------------------------|
||----------------------------------------------------|


  Q  E E E E E E  4x
|-----------------||
|----------------o||
|-6--9-6-7-9-7-6--||
|-----------------||
|----------------o||
|-----------------||


    E E E E E E E E E E E E E E E E  4x W
||-----------------------------------||------|
||o-----3-----3---3-----5-----5---5-o||------|
||--4-4---4-4---4---2-2---2-2---2----||-4----|
||-----------------------------------||------|
||o---------------------------------o||------|
||-----------------------------------||------|


Дай ръката си, Ралица,
щастлива ще бъдеш с мен,
по чаршафите бели ще бродиме,
нощ и ден. Нощ и ден.

Родени сме - ще се обичаме,
родени сме - ще полетим,
родени сме да се привличаме,
нощ и ден. Нощ и ден.

Аз искам да плувам в кревата ти,
аз искам да бъда във теб,
аз искам да пипам косата ти,
нощ и ден. Нощ и ден.

С мед ще намажем телата си,
в брашното ще легнем да спим
и нежно сплели краката си,
ще творим, ще творим.


акорди за китара

акорди за пиано

видео клип


© 2007-2017 akordite.com - Акорди и таблатури на български песни

Вход






Забравена парола
Нямате достъп?
Регистрирайте се!!!

Последни песни



Статистика

Песни: 1411
Потребители: 12743

В момента онлайн: