[Всички песни]
[Скрий Акордите]
[Редактирай песента]

Печат
Гама
C : G : D : A : E : B : F# : C# : F : Bb : Eb : Ab : Db : Gb

Мераци


Изпълнител: Ревю
Текст: В.Гюров
Музика: В.Гюров
Албум: РЕВЮ 88-89
Изпратил: dixy

Gtr I (E A D G B E)
Q=160
4/4
   

    Q   Q  Q   Q  Q  Q  Q  Q  6x
||----------------------------||
||o--------------------------o||
||-----11-----11-----9-----6--||
||--9------9------7-----4-----||
||o--------------------------o||
||----------------------------||


    E E E H E Q.  H E E E E H E Q. Q. Q
||----------------------------------------||
||o-------7-----------------7---8--7-----o||
||------7-----7---9-------7-----------9---||
||----9-----------------9-----------------||
||o-9-----------------9------------------o||
||----------------------------------------||


    Q   Q  Q   Q   Q  Q  Q  Q
||-----------------------------||
||o---------------------------o||
||-----11-----11------9-----6--||
||--9------9-------7-----4-----||
||o---------------------------o||
||-----------------------------||


    E E E H    E  Q.   H    E  E E E H    E  Q.   Q.   Q
||---------------------------------------------------------||
||o-------7--------------------------7-------8----7-------o||
||------7---------7----9-----------7-------------------9---||
||----9--------------------------9-------------------------||
||o-9--------------------------9--------------------------o||
||---------------------------------------------------------||



    E E E E E E E E  4x E E E E E E E E E E E E E E E E
||-------------------||------------------------------------|
||o-----------------o||------------------------------------|
||--6-6--------------||-6-6-6-6-6-6-6-6-6-6-6-6-6-6-6-6----|
||------7-7-5-5-7-7--||------------------------------------|
||o-----------------o||------------------------------------|
||-------------------||------------------------------------|


  E E E E E E E E E E E E E E E E
|------------------------------------|
|------------------------------------|
|-7-7-7-7-7-7-7-7-7-7-7-7-7-7-7-7----|
|------------------------------------|
|------------------------------------|
|------------------------------------|


    E E E H    E  Q.   H    E  E E E H    E  Q.   Q.   Q
||---------------------------------------------------------||
||o-------7--------------------------7-------8----7-------o||
||------7---------7----9-----------7-------------------9---||
||----9--------------------------9-------------------------||
||o-9--------------------------9--------------------------o||
||---------------------------------------------------------||


    E E E E E E E E  4x E E E E E E E E  E E E E E E E E
||-------------------||-------------------------------------|
||o-----------------o||-------------------------------------|
||--6-6--------------||-6-6-6-6-6-6-6-6--6-6-6-6-6-6-6-6----|
||------7-7-5-5-7-7--||-------------------------------------|
||o-----------------o||-------------------------------------|
||-------------------||-------------------------------------|


  E E E E E E E E E E E E E E E E
|------------------------------------|
|------------------------------------|
|-7-7-7-7-7-7-7-7-7-7-7-7-7-7-7-7----|
|------------------------------------|
|------------------------------------|
|------------------------------------|


    E E E E E E E E  E E E E E E E E     E E E E E E E E
||------------------------------------||--------------------|
||o----------------------------------o||--------------------|
||--4-4-4-4-7-7-7-7--6-6-6-6----------||-4-4-4-4-6-6-6-6----|
||---------------------------7-7-7-7--||--------------------|
||o----------------------------------o||--------------------|
||------------------------------------||--------------------|


  E E E E E E E E E E E E E E E E E E E E E E E E
|----------------------------------------------------|
|-----------------------------------------5-5-5-5----|
|-7-7-7-7-6-6-6-6-4-4-4-4-6-6-6-6-7-7-7-7------------|
|----------------------------------------------------|
|----------------------------------------------------|
|----------------------------------------------------|


    E E E E E E E E E E E E E E E E E E E E E E E E
||-----------------------------------------------------|
||o-----8-8-----8-8-----8-8-----8-8-----8-8-----8-8----|
||--6-6-----6-6-----6-6-----6-6-----6-6-----6-6--------|
||-----------------------------------------------------|
||o----------------------------------------------------|
||-----------------------------------------------------|


  E E E E E E E E E E E E E E E E E E E E E E E E
|----------------------------------------------------|
|-----8-8-----8-8------------------------------------|
|-6-6-----6-6-----6-6-6-6-6-6-6-6-6-6-6-6-6-6-6-6----|
|----------------------------------------------------|
|----------------------------------------------------|
|----------------------------------------------------|


  E E E E E E E E E E E E E E E E
|----------------------------------||
|---------------------------------o||
|-7-7-7-7-7-7-7-7-7-7-7-7-7-7-7-7--||
|----------------------------------||
|---------------------------------o||
|----------------------------------||


    Q E E Q E E H   H   4x     Q E E Q  Q  4x
||----7-7---7-7-----9---||-||----7-7----7--||
||o---7-7---7-7----10--o||-||o---8-8----8-o||
||----7-7---7-7-----9---||-||----7-7----7--||
||----9-9---9-9----11---||-||----9-9----9--||
||o--------------------o||-||o------------o||
||----------------------||-||--------------||


      Q E E Q E E H    H  4x
|-||----7-7---7-7------9--||
|-||o---7-7---7-7-----10-o||
|-||----7-7---7-7------9--||
|-||----9-9---9-9-----11--||
|-||o--------------------o||
|-||----------------------||

Сиви хора виждам да минават край мен
Искам всички да оцветя
Малко радост да посипя поне
по загрижените им лица

Плуват в паяжина сто сърца
На други всичко име наред
Ей, хора, дайте ми назаем
железния си мироглед!

Виждам сенките ви как строят
със стари тухли нов мираж
А зад него е забравеният бряг
на доброто, но и той е ваш

Не искам да дишам от вашия въздух,
наситен със дъх на лъжа
Но мога да дам от кръвта си на всеки
Стопете със нея леда!

Никога няма да оставя съвестта си
до пътя да събира цветя
"Звездите" наистина хубаво светят,
само че не през деня!


акорди за китара

акорди за пиано

видео клип


© 2007-2017 akordite.com - Акорди и таблатури на български песни

Вход






Забравена парола
Нямате достъп?
Регистрирайте се!!!

Последни песни



Статистика

Песни: 1411
Потребители: 12754

В момента онлайн:

2 госта и 1 потребител
  • ivo67