[Всички песни]
[Скрий Акордите]
[Редактирай песента]

Печат
Гама
C : G : D : A : E : B : F# : C# : F : Bb : Eb : Ab : Db : Gb

Закуска


Изпълнител: Ревю

Албум: 2002
Изпратил: Веселин, veselin_marinov@yahoo.com,


интро:8 пъти (само бас китара)
G|-----------15---------15---------------10-12-10-----|
D|--/17--17-----17--17-----/13---12--10-----------12--|
A|----------------------------------------------------|
E|----------------------------------------------------|

куплет:4 пъти
G|--------3-------3------------7-/3==|
D|--5--5----5--5--------8----7-------|
А|------------------6-6-----5--------|
Е|-----------------------------------|

Припев:4 пъти
G|-----------------------------------|
D|-5-5-5-5-/1-1-1-1-/5-5-5-5-0-0-0-0-|
А|-----------------------------------|
Е|-----------------------------------|

интро фиргура:4 пъти (само бас китара)
G|-----------15---------15---------------10-12-10-----|
D|--/17--17-----17--17-----/13---12--10-----------12--|
A|----------------------------------------------------|
E|----------------------------------------------------|

куплет:4 пъти
G|--------3-------3------------7-/3==|
D|--5--5----5--5--------8----7-------|
А|------------------6-6-----5--------|
Е|-----------------------------------|

Припев:8 пъти
G|-----------------------------------|
D|-5-5-5-5-/1-1-1-1-/5-5-5-5-0-0-0-0-|
А|-----------------------------------|
Е|-----------------------------------|


бас фигура:(само бас китара)      3 пъти
G|------19----19-/---15----15-/--|-------15----17----15---------| За втората част на фигурата
D|о--17----17----/13----13----/-о|----15----15----15----15------| не съм 100% сигурен, но спо-
А|о-----------------------------о|-13---------------------------| ред мен този вариант звучи
Е|-------------------------------|------------------------------| добре.
 |                                                              |
  \----------------------------  ------------------------------/
                                \/
                          2 пъти цялата
интро фигура:4 пъти                                
G|-----------15---------15---------------10-12-10-----|
D|--/17--17-----17--17-----/13---12--10-----------12--|
A|----------------------------------------------------|
E|----------------------------------------------------|

бас фигура:8 пъти(само бас китара)
G|-------------------------------|
D|-5-5-5-/1-1-1-/5-5-5-5-0-0-0-0-|
А|-------------------------------|
Е|-------------------------------|

куплет:4 пъти
G|--------3-------3------------7-/3==|
D|--5--5----5--5--------8----7-------|
А|------------------6-6-----5--------|
Е|-----------------------------------|

Припев:8 пъти
G|-----------------------------------|
D|-5-5-5-5-/1-1-1-1-/5-5-5-5-0-0-0-0-|
А|-----------------------------------|
Е|-----------------------------------|

Аутро:4 пъти (само бас китара)
G|------19----19-/---15----15-/--|
D|---17----17----/13----13----/--|
А|-------------------------------|
Е|-------------------------------|


КОМЕНТАР: Това е много хубава песен от новия албум на група Ревю,
съдържаща много оригинални бас фигури и бас сола които 100% ще
се харесат на всеки басист. Песента не е трудна и почти изцяло 
е равноделна. Ако имате някакви забележки или въпроси, моля пи-
шете ми на е-mail адреса оставен по горе

акорди за китара

акорди за пиано

видео клип


© 2007-2017 akordite.com - Акорди и таблатури на български песни

Вход






Забравена парола
Нямате достъп?
Регистрирайте се!!!

Последни песни



Статистика

Песни: 1411
Потребители: 12529

В момента онлайн:

1 гост