[Всички песни]
[Скрий Акордите]
[Редактирай песента]

Печат
Гама
C : G : D : A : E : B : F# : C# : F : Bb : Eb : Ab : Db : Gb

Тиха нощ


Изпълнител: Коледни песни

Изпратил: Evgeni Vasilev (evasilev@yahoo.coм)


  G
|-------0-----|----------------|-------0-----|----------------|
|-3--------3--|-0--------0-----|-3--------3--|-0--------1--0--|
|-0--0--------|-0--0--------0--|-0--0--------|-0--0-----------|
|-0-----------|-0-----0--------|-0-----------|-0-----0--------|
|-2-----------|-2--------------|-2-----------|-2--------------|
|-3-----------|-3--------------|-3-----------|-3--------------|

  D7 G C
|-5-----5--|-2--------|-3------3--|----------------|-0--------0--|
|-3-----3--|-1--0-----|-0---------|-3--------------|-1-----1-----|
|-2--------|-------2--|-0---------|-0--0-----------|-0--0--------|
|----0-----|----------|-----0-----|-0-----0--------|-2-----------|
|----------|----------|-----------|-2--------0--2--|-3-----------|
|----------|----------|-----------|-3--------------|-------------|

                G C
|-3-----2--0--|-------0-----|----------------|-0--------0-|-3-----2---0-|
|-1-----------|-3--------3--|-0--------------|-1-----1----|-1-----------|
|-0--0--------|-0--0--------|-0--0-----------|-0--0-------|-0--0--------|
|-2-----------|-0-----------|-0-----0--------|-2----------|-2-----------|
|-------------|-2-----------|-2--------0--2--|-3----------|-------------|
|-------------|-3-----------|-3--------------|------------|-------------|
  
  G D7 G
|-------0-----|----------------|-5-----5--|-8-----5--2-|-3--------------|
|-3--------3--|-0--------1--0--|-3--------|-7----------|-0--------0-----|
|-0--0--------|-0--0-----------|-2--------|-5----------|-0--0-----------|
|-0-----------|-0-----0--------|----0-----|----0-------|-------0-----0--|
|-2-----------|-2--------------|----------|------------|----------------|
|-3-----------|-3--------------|----------|------------|----------------|

                               D7 G
|-7--------------|-3--------|------------|-3---------3-|
|-0--------0-----|-0--3--0--|--3----1----|-3-----3-----|
|-0--0-----------|-0--------|--2-------2-|-0-0-----0---|
|-0-----0-----0--|-0--------|--0---------|-0---0-------|
|----------------|----------|------------|-2-----------|
|----------------|----------|------------|-3-----------|




Ili po-lesnata versija:


||-0---2p0---------|-0---2p0---------|-7---7---4-------|-5---5---0-------|
||----------2------|----------2------|-----------------|-----------------|
||-----------------|-----------------|-----------------|-----------------|
||-----------------|-----------------|-----------------|-----------------|
||-0--------0------|-0--------0------|-----------------|-0-------0-------|
||-----------------|-----------------|-0-------0-------|-----------------|

 |-2--2--5---4--2--|-0---2p0---------|-2--2--5---4--2--|-0---2p0---------|
 |-----------------|----------2------|-----------------|----------2------|
 |-----------------|-----------------|-----------------|-----------------|
 |-0--0------------|-----------------|-0--0------------|-----------------|
 |-------0---------|-0--------0------|-------0---------|-0--------0------|
 |-----------------|-----------------|-----------------|-----------------|

 |-7--7--10--7--4--|-5--5---9--------|-5--------0------|-------------0---|
 |-----------------|-----------------|----5------------|-3--0--------2---|
 |-----------------|-----------------|-------6---------|--------2----2---|
 |-----------------|-----------------|-----------------|----------or-2---|
 |-----------------|-0------0--------|-0---------------|--------0----0---|
 |-0-----0---------|-----------------|----------0------|-----------------|

Тиха нощ! Свята нощ!
Цела земя
Е в тишина.
Виж! Витлеемската светла звезда
Мъдреци води от чужда страна,
Дето Христос се роди /2

2. Тиха нощ! Свята нощ!
Песен сега
На похвала
Ангели пеят със радостен глас!
Вест за спасение донасят до нас:
Ето спасител дойде! /2

3. Тиха нощ! Свята нощ!
Цела земя
Пей с веселба.
Почет на Бога нек’ всеки даде,
Че между нас днес спасител дойде -
Мир на всегда на земли /

акорди за китара

акорди за пиано

видео клип


© 2007-2017 akordite.com - Акорди и таблатури на български песни

Вход






Забравена парола
Нямате достъп?
Регистрирайте се!!!

Последни песни



Статистика

Песни: 1411
Потребители: 12526

В момента онлайн:

14 госта и 3 потребителя
  • Georgi5051
  • Todor lefterov
  • Jon Lord