[Всички песни]
[Скрий Акордите]
[Редактирай песента]

Печат
Гама
C : G : D : A : E : B : F# : C# : F : Bb : Eb : Ab : Db : Gb

Решетки


Изпълнител: Подуене Блус Бенд

Изпратил: sotislav@yahoo.com (Сотислав Божков)


Една чудесна песничка на ПББ, в 12-тактов ритъм. Като всяко блусарско парче
може да се свири лесно и в други тоналности. Солото, което съм написал е 
близко до оригиналния запис, но винаги може да бъде променяно с някоя от
безбройните хватки в блуса. Приятно свирене !


(E)Малък още бях, обичах си играта
и съвсем без страх нарушавах тишината,
о, ведн(A7)аж така, както си играех
спр(E)я пред мен кола със решетки на стъклата

(B7)а-у-у, а-(A7)у със решетки на стъкла(E)та fill 1

Прибраха ме със шут, извиха ми ръката
докато усетя и - влязох във колата
много преглеших, нарушавах правилата,
така се озовах зад решетки на стъклата
а-у-у, а-у със решетки на стъклата fill 1

SOLO fill 2

Отидох в ТВУ, а после във затвора
цял живот край мен, само мили,мили хора
и питам се сега, ако дойде свободата
как ще гледам аз със решетки на душата
а-у-у, а-у със решетки на стъклата. fill 1
а-у-у, а-у със решетки на стъклата.



fill 1:
e---4-4----3---2-------------2---
B-------------------0--------0---
G----4---3---2------0h1------2---
D-------------------2--------1---
A-------------------2----0-1-2---
E--------------------------------

SOLO
fill 2: I II III IV
e-------------:--------------I-----------7-6-5:----------I
B------5----5-:-----5-5--7b8-I----5----5------:-8--5-- 5-I
G---4/6--4/6--:-4/6----------I-4/6--4/6-------:------6---I
D-------------:--------------I----------------:----------I
A-------------:--------------I----------------:----------I
E-------------:--------------I----------------:----------I
           V VI
e----------------------:---------------------------I
B--8-------------------:4/5-5--4/5-5--4/5-5--4/5-5-I
G--6-------------------:3/4-4--3/4-4--3/4-4--3/4-4-I
D--------6/7-5-5-7-----:---------------------------I
A-------------7--------:---------------------------I
E----------------------:---------------------------I
             VII VIII
e----------------------------:---------------------I
B-2/3-3--2/3-3--2/3-3--2/3-3-:-2/3---3-3-3------7--I
G-3/4-4--3/4-4--3/4-4--3/4-4-:-3/4---4-4-4--7/8----I
D----------------------------:---------------------I
A----------------------------:---------------------I
E----------------------------:---------------------I
             IX X
e--9-8-7---------------------:-7-6-5---------------I
B---------10--------7--------:--------8--4/5--4/5--I
G---------------6/7----------:-----------5/6--5/6--I
D----------------------------:---------------------I
A----------------------------:---------------------I
E----------------------------:---------------------I
              XI XII
e-----------4-4---3---2------:----------2----------I
B-2/3------------------------:-0--------0----------I
G-3/4--------4---3---2-------:-0h1------2----------I
D----------------------------:-2--------1----------I
A----------------------------:-2----0-1-2----------I


акорди за китара

акорди за пиано

© 2007-2017 akordite.com - Акорди и таблатури на български песни

Вход






Забравена парола
Нямате достъп?
Регистрирайте се!!!

Последни песни



Статистика

Песни: 1411
Потребители: 12743

В момента онлайн: