[Всички песни]
[Скрий Акордите]
[Редактирай песента]

Печат
Гама
C : G : D : A : E : B : F# : C# : F : Bb : Eb : Ab : Db : Gb

Рейгън в кръв


Изпълнител: Хиподил

Изпратил: z_pavlov@bitex.bg

      .   .       .             .  
e||-------------------|-------------------|
B||o------------------|-------------------|
G||-------------------|-------------------|
D||-------------------|-------------------|
A||o--3---3-------1---|---3-3-1-3---1-0---|
E||-----------3-3-----|-------------------|
      .   .       .             .  
e||-------------------|-------------------|
B||-------------------|------------------o|
G||-------------------|-------------------|
D||-------------------|-------------------|
A||---3---3-------1---|---3-3-1-3--------o|
E||-----------3-3-----|-------------------|


      .   .       .             .  
e||-------------------|-------------------|
B||o------------------|-------------------|
G||-------------------|-------------------|
D||-------------------|-------------------|
A||o--3---3-------1---|---3-3-1-3---1-0---|
E||-----------3-3-----|-------------------|
      .   .       .             .  
e||-------------------|-------------------|
B||-------------------|------------------o|
G||-------------------|-------------------|
D||-------------------|-------------------|
A||---3---3-------1---|---3-3-1-3--------o|
E||-----------3-3-----|-------------------|



акорди за китара

акорди за пиано

© 2007-2017 akordite.com - Акорди и таблатури на български песни

Вход






Забравена парола
Нямате достъп?
Регистрирайте се!!!

Последни песни



Статистика

Песни: 1411
Потребители: 12530

В момента онлайн:

4 госта