[Всички песни]
[Скрий Акордите]
[Редактирай песента]

Печат
Гама
C : G : D : A : E : B : F# : C# : F : Bb : Eb : Ab : Db : Gb

Осъдени души


Изпълнител: Митко Щерев

Изпратил: Страцимир Колчевски (stratsi@exsisto.com)



E |---------------------------------------------------------------
B |-----------------------------------------------------0---------
G |-------------------------------2-----0-----------------2-2-1-1-
D |--------2-------0----------------2-3---3-2-0---3-2-0-----------
A |--3-2-0-----2-3---3-2-0--3-2-0---------------------------------
E |---------------------------------------------------------------




E |---------------------------------------------------------------
B |---------------------------------------------------------------
G |---------------------0---------1-2-----------------------------
D |-3-3-2-2-0-------------3-3-2-2---------------------------------
A |-----------3---3-2-0-------------------------------------------
E |---------------------------------------------------------------




акорди за китара

акорди за пиано

видео клип


© 2007-2017 akordite.com - Акорди и таблатури на български песни

Вход






Забравена парола
Нямате достъп?
Регистрирайте се!!!

Последни песни



Статистика

Песни: 1411
Потребители: 12743

В момента онлайн:

9 госта и 1 потребител
  • Станков