[Всички песни]
[Скрий Акордите]
[Редактирай песента]

Печат
Гама
C : G : D : A : E : B : F# : C# : F : Bb : Eb : Ab : Db : Gb

Облаци


Изпълнител: Хиподил

Изпратил: orion__@abv.bg (Емил Георгиев)



1)
e------------------------------------------------------------------------------
B-----------------------2------------------------------------------------------
G----1-2-1--------2------2-----------------------------------------------------
D---2------2-----2--2------2---------------------------------------------------
A--2---------2--0----------------2-0--2/4---2-0--------------------------------
E-0-----------------------------------------------5-5--5-4-2-4-2----------------
INTRO AND VERSE

2)
D-2-2-2--4-4---2-2-2--4-2--2-2-2--4-4-----------
A-2-2-2--2-2---2-2-2--2-0--2-2-2--2-2--6-4-----
E-0-0-0--------0-0-0--------0-0-0-------4-2------
CHORUS

3)
D-------------------------------------------------------------------
A-2-----------------------------------------------0-2-4-5-6--------
E-0-0-0-0-0-0-0-0-0-0-1/5\1-0-0-0-0-0-----------------------------

4)
D---------------------------------------------------------------------
A-2------------------------------------------------0-2-4-5-6-7-------
E-0-0-0-0-0-0-0-0-0-0-1/5\1-0-0-0-0-0------------------------------
ENDIN

акорди за китара

акорди за пиано

видео клип

0

© 2007-2017 akordite.com - Акорди и таблатури на български песни

Вход






Забравена парола
Нямате достъп?
Регистрирайте се!!!

Последни песни



Статистика

Песни: 1411
Потребители: 12743

В момента онлайн:

8 госта