[Всички песни]
[Скрий Акордите]
[Редактирай песента]

Печат
Гама
C : G : D : A : E : B : F# : C# : F : Bb : Eb : Ab : Db : Gb

Две сърца


Изпълнител: Деси Слава

Изпратил: mr.niklev

Здравейте!

Това е първият ми опит да извадя нещо по слух. Ще се радвам на корекции и акорди

Това е интрото на песента. Също така се повтаря няколко пъти след припева.

E|--------------------------------
B|--12--11-----11--11-------------
G|----------13--------13--11--13--
D|--------------------------------
A|--------------------------------
E|--------------------------------

E|------------------------------------
B|--12-14-12-11----11--11-------------
G|--------------13--------13--11--13--
D|------------------------------------
A|------------------------------------
E|------------------------------------

E|---------------------------------------------------------------------
B|--12-14-12-11----11--11-------------------------12-14--14-12--11----
G|--------------13--------13--11--13--11--13--13-------------------13-
D|---------------------------------------------------------------------
A|---------------------------------------------------------------------
E|---------------------------------------------------------------------


E|---------------------------------------------------------------------
B|--12-14-12-11----11--11----------------------------------------------
G|--------------13--------13--11--13--11--13--13--11-13--13-11---------
D|--------------------------------------------------------------14-12--
A|---------------------------------------------------------------------
E|--------------------------------------------------------------------

акорди за китара

акорди за пиано

видео клип


© 2007-2017 akordite.com - Акорди и таблатури на български песни

Вход






Забравена парола
Нямате достъп?
Регистрирайте се!!!

Последни песни



Статистика

Песни: 1411
Потребители: 12548

В момента онлайн:

3 госта