[Всички песни]
[Скрий Акордите]
[Редактирай песента]

Печат
Гама
C : G : D : A : E : B : F# : C# : F : Bb : Eb : Ab : Db : Gb

Наследство (соло)


Изпълнител: Диана Експрес

Изпратил: evasilev@yahoo.com (Евгений Василев)


соло:

 E-|-5-----0-2-4-5--2-|-5-----0-2-4-0----|-5----0-2-4-0----|
 H-|-----0------------|-----0----------2-|----0----------3-|
 G-|------------------|------------------|-----------------|
 D-|------------------|------------------|-----------------|
 A-|------------------|------------------|-----------------|
 E-|------------------|------------------|-----------------|


 Е-|----------------------------|
 H-|-0-2-5-3-2-3-0----(2)-------|
 G-|---------------------3-2-0--|
 D-|----------------------------|
 A-|----------------------------|
 E-|----------------------------|


акорди за китара

акорди за пиано

видео клип


© 2007-2017 akordite.com - Акорди и таблатури на български песни

Вход






Забравена парола
Нямате достъп?
Регистрирайте се!!!

Последни песни



Статистика

Песни: 1411
Потребители: 12746

В момента онлайн: