[Всички песни]
[Скрий Акордите]
[Редактирай песента]

Печат
Гама
C : G : D : A : E : B : F# : C# : F : Bb : Eb : Ab : Db : Gb

Осъдени души


Изпълнител: Лили Иванова

Музика: Митко Щерев
Изпратил: Lachko0o 


e |----------------------------------5----------------
B |--------5----------------------------5-6-8--6-5----
G |--5-4-------4-5-7---5-4-----5-4-----------------7--
D |------7-----------------7-------7------------------
A |---------------------------------------------------
E |---------------------------------------------------

e |-------7-5-4-----------------------------------
B |-5-6---------6-5--------------8-6-6-5-5--------
G |-----7-----------7-5----5-4--------------------
D |----------------------------7-------------6--7-
A |-----------------------------------------------
E |-----------------------------------------------

e |-----7-8-7-------------------------------------------
B |--10---------8-8-10--8-6-5---5-6-5-----5-6---5-6-5---
G |-----------------------------------7-------7---------
D |-----------------------------------------------------
A |-----------------------------------------------------
E |-----------------------------------------------------

e |-------------------------
B |-5-6-5-----5-6---5-6-5---
G |-------7-------7---------
D |-------------------------
A |-------------------------
E |-------------------------

e |---------------------------------------------------------------
B |-----------------------------------------------------0---------
G |-------------------------------2-----0-----------------2-2-1-1-
D |--------2-------0----------------2-3---3-2-0---3-2-0-----------
A |--3-2-0-----2-3---3-2-0--3-2-0---------------------------------
E |---------------------------------------------------------------

e |---------------------------------------------------------------
B |---------------------------------------------------------------
G |---------------------0---------1-2-----------------------------
D |-3-3-2-2-0-------------3-3-2-2---------------------------------
A |-----------3---3-2-0-------------------------------------------
E |---------------------------------------------------------------

e |--------------------------------------5----------5-
B |--------5-----------5-----------5-----5--------5---
G |--5-4---------5-4---------5-4---------5------5-----
D |------7-----------7-----------7-------7----7-------
A |--------------------------------------7------------
E |--------------------------------------5--5--------

акорди за китара

акорди за пиано

© 2007-2017 akordite.com - Акорди и таблатури на български песни

Вход






Забравена парола
Нямате достъп?
Регистрирайте се!!!

Последни песни



Статистика

Песни: 1411
Потребители: 12743

В момента онлайн:

9 госта и 1 потребител
  • Станков