[Всички песни]
[Скрий Акордите]
[Редактирай песента]

Печат
Гама
C : G : D : A : E : B : F# : C# : F : Bb : Eb : Ab : Db : Gb

Най-щастливия ден


Изпълнител: Контрол

Изпратил: pulse@mail.bg


интро    припев
--------|------------------------------------------
--------|------------------------------------------
-19\7---|-77777777--------99999999-----------------
--------|---------99999999--------77777777---------

куплет
-------------------------6---6-------------
--6-9--69-----6----6---7----7-----6--------
-7----7-----7-----7--9----9-----9---9-76---
----------9-----9-------------7------------

конструкция на песента:

припев x4
куплет x2
припев x5
куплет x2
припев x6
куплет x2
припев x1

акорди за китара

акорди за пиано

видео клип


© 2007-2017 akordite.com - Акорди и таблатури на български песни

Вход






Забравена парола
Нямате достъп?
Регистрирайте се!!!

Последни песни



Статистика

Песни: 1411
Потребители: 12547

В момента онлайн:

2 госта