[Всички песни]
[Скрий Акордите]
[Редактирай песента]

Печат
Гама
C : G : D : A : E : B : F# : C# : F : Bb : Eb : Ab : Db : Gb

Кажи ми да


Изпълнител: Стоян Михалев и Виктор

Изпратил: A_z 

куплет:
F# | Bm | F# | Bm | E | A | G# | C#

припев:
Cm | Cm | A | G#   x3

интро:
e--2---------2-----------------------------2---------------3p2--| + 4 пъти
b--------2---------5---3h5p3p2---#-----2---------2---------2----|  F# 
g------3---------3-------------------3---------3--------3-------| редувайки
d----4---------4-------------------2-----2---4-----2-2----------| нагоре
a---------------------------------------------------------------| надолу
e---------------------------------------------------------------|

 = пауза.

сола в припева:

e-----------------------------/-------------------/-------------
b--------------------7--------/------------5-7-9--/-------------
g----6-8-9------8-9----8-9-6--/------5-6-8--------/-----------
a--6----------6---------------/--6-7--------------/----------
d-----------------------------/-------------------/------------
e-----------------------------/-------------------/-------------

e--9---9-9-8------------------/----11--12-12---12-12-11--10-10-10-10--
b--------------10---10-10-9---/-------------------------------------
g-----------------------------/--------------------------------------
a-----------------------------/--------------------------------------
d-----------------------------/---------------------------------------
e-----------------------------/--------------------------------------

Старах се дълго да забравя твоя смях,
превръщах нощите във дни и се пилях,
но ето днес се връщам, сляп от самота,
да те намеря в мрака зад една врата.

Благодаря на Бог, че още си сама,
леглото хладно е от моята страна.
Какво ми пука, че земята се върти,
щом където те оставих чакаш ти.

Мрази ме, мъчи ме,
крещи, разсипи ме,
после кажи ми да.
Плачи, удари ме,
лъжи ме, мъчи ме,
но после кажи ми да.

Дали ще бъдеш с мен докрай, кажи ми да,
ако съм жаден обещай да си вода,
щом тръгнеш ти стена от устни ще те спре,
ако си тръгна аз - убий ме по добре.

По топлия ти гръб ще плъзна хладна длан,
светът ще стане най-големия екран,
ще се извиеш ти над мене като дим
и най-красивия пейзаж ще сътворим.

Мрази ме, мъчи ме,
крещи, разсипи ме,
после кажи ми да.
Плачи, удари ме,
лъжи ме, мъчи ме,
но после кажи ми да.

пре-соло:

e----------9-------------------------------------------4-------
b-------9----10---------10---------------7--9-------------4-------
g-----9------------9--------9---------6-----------5--------------
d-11------------11---11-------------7-----------6---6--------------
a--------------------------------9------------------------------
e-------------------------------------------------------------

соло:

e----------------------------------------------------------------------
b---------------7------------------------7997------7---------------------
g---6-8-9---8-9---8-9-6-----6-8-9--6-8--------99-8---9---5-6-8--6h8p6--5
d-6-----------------------6---------------------------------------------
a-----------------------------------------------------------------------
e-----------------------------------------------------------------------

e------------------4-5-4--------------91112119--9--------------
b--------------5-7-------7-5-7-5-4---9--------12-12109109------
g9-8-6-8-5-6-8-------------------------------------------1198---
d---------------------------------------------------------------
a--------------------------------------------------------------
e--------------------------------------------------------------

e-----------------
b-------------------
g-11-9--8-9-8--6--
d-----------------
a-----------------
e----------------



акорди за китара

акорди за пиано

видео клип


© 2007-2017 akordite.com - Акорди и таблатури на български песни

Вход






Забравена парола
Нямате достъп?
Регистрирайте се!!!

Последни песни



Статистика

Песни: 1411
Потребители: 12754

В момента онлайн:

1 гост и 1 потребител
  • ivo67