[Всички песни]
[Скрий Акордите]
[Редактирай песента]

Печат
Гама
C : G : D : A : E : B : F# : C# : F : Bb : Eb : Ab : Db : Gb

Катерино моме v2


Изпълнител: Слави Трифонов

Изпратил: dimitar_ianev

FILL: x 4

 [C]Катерино моме, [Fm]Ка[Hm]те[C#]рино[C],
 [C]Катерино моме, [Fm]Ка[Hm]те[C#]рино[C],
 [Fm]защо си толкоз, [C]моме, [Hm]ху[C#]ба[C]ва,
 [Fm]защо си толкоз, [C]моме, [Hm]гиз[C#]да[C]ва?

Intro: . . .x2 (включват се ударни инструменти)
 [C]Каква те майка, моме, [Fm]ро[Hm]ди[C#]ла[C]? 
 [C]Каква те майка, моме, [Fm]кър[Hm]ми[C#]ла[C]?
 [Fm]Каква си трева, [C]моме, [Hm]га[C#]зи[C]ла? 
 [Fm]Каква си вода, [C]моме, [Hm]ти [C#]пи[C]ла?

Intro:
E|---------------------------------------6--8--9--9--8--6-------------------
B|--1---2--1--2--4--2--6--4--6--8--6--9-------------------------------------
G|----3---------------------------------------------------------------------
D|--------------------------------------------------------------------------
A|--------------------------------------------------------------------------
E|--------------------------------------------------------------------------

E|--------------------------------------------------------------------------
B|--1---2--1--2--4--2--6--4--6--8--6--9--9--8--6----------------------------
G|----3-------------------------------------------6--3--5-------------------
D|--------------------------------------------------------------------------
A|--------------------------------------------------------------------------
E|--------------------------------------------------------------------------


 [C]Я съм си, мило либе, [Fm]ю[Hm]ба[C#]ва[C], 
 [C]Я съм си, мило либе, [Fm]гиз[Hm]да[C#]ва[C], 
 [Fm]оти съм расла, [C]либе, [Hm]в пла[C#]нина[C]та,
 [Fm]оти съм расла, [C]либе, [Hm]в пла[C#]нина[C]та!

Intro:
E|---------------------------------------6--8--9--9--8--6-------------------
B|--1---2--1--2--4--2--6--4--6--8--6--9-------------------------------------
G|----3---------------------------------------------------------------------
D|--------------------------------------------------------------------------
A|--------------------------------------------------------------------------
E|--------------------------------------------------------------------------

E|--------------------------------------------------------------------------
B|--1---2--1--2--4--2--6--4--6--8--6--9--9--8--6----------------------------
G|----3-------------------------------------------6--3--5-------------------
D|--------------------------------------------------------------------------
A|--------------------------------------------------------------------------
E|--------------------------------------------------------------------------

FILL:x2

 [C]Катерино моме, [Fm]Ка[Hm]те[C#]рино[C],
 [C]Катерино моме, [Fm]Ка[Hm]те[C#]рино[C],

Intro:
E|---------------------------------------6--8--9--9--8--6-------------------
B|--1---2--1--2--4--2--6--4--6--8--6--9-------------------------------------
G|----3---------------------------------------------------------------------
D|--------------------------------------------------------------------------
A|--------------------------------------------------------------------------
E|--------------------------------------------------------------------------

E|--------------------------------------------------------------------------
B|--1---2--1--2--4--2--6--4--6--8--6--9--9--8--6----------------------------
G|----3-------------------------------------------6--3--5-------------------
D|--------------------------------------------------------------------------
A|--------------------------------------------------------------------------
E|--------------------------------------------------------------------------



акорди за китара

акорди за пиано

видео клип


© 2007-2017 akordite.com - Акорди и таблатури на български песни

Вход






Забравена парола
Нямате достъп?
Регистрирайте се!!!

Последни песни



Статистика

Песни: 1411
Потребители: 12561

В момента онлайн:

10 госта и 1 потребител
  • Kostadinova