[Всички песни]
[Скрий Акордите]
[Редактирай песента]

Печат
Гама
C : G : D : A : E : B : F# : C# : F : Bb : Eb : Ab : Db : Gb

Хипноза


Изпълнител: Глория

Изпратил: mowerr87 

интро
2/
G---------------------------------------------------7
A-7--------7----------7------------7---7h10---
E---7h10-----7h10------7h10-----------------
1/
G---------------------------------------------------------------------
A-10--------------10--------------10------------10--12-10--7-
E-------10h14---------10h14------7h10------------------------

solo

D-14S16-b17-16p14-16p14-16-14-14S16-b17-16p14-16p14-16-14

G-------------------b14---------------------------------------------14------------
D-14S16-b17--------------17p16-17p16-17p16-14-12- b17-----------------------b17---

G--------------------14----------------------------b14----------------------------
D14S16-b17-16p14---------16-------14---14s16-17--------17p16-17p16-17p16-b14s16-14
A------------------------------17-------------------------------------------------


E5
Не ме обичай, не заслужавам

D5
Ти си прекрасен, 

E5
а аз какво ти давам?

B---------15-----------15
G-b16---------16-------------16-14-12-b7

Трохи от нежност,ръце студени...
Любовни песни, на него посветени.

B---------15-----------15---------------
G-b16---------16-------------16-14-12-b7

E5
Хипноза с име на мъж
владее моето сърце.

C5
Хипноза с име на мъж,
така различен от теб...

D5
Хипноза с име Любов,
обрича ме до живот,

E5
да искам него...

E5
И най-добрия да си,все още влюбена съм


C5
И най-добрия да си,все още негава съм

D5
Кажи прощаваш ли ми,че имаш тялото ми,

C5 D5 E5
а всичко друго има Той...

Как имаш сили,
за думи мили?
За тиха нежност...
За обич до безкрайнаст...
Шепнеш любовно -
"Не си виновна..."
Ти си прекрасен,
а виж ме аз каква съм...

Хипноза с име на мъж
владее моето сърце.
Хипноза с име на мъж,
така различен от теб..

акорди за китара

акорди за пиано

видео клип


© 2007-2017 akordite.com - Акорди и таблатури на български песни

Вход






Забравена парола
Нямате достъп?
Регистрирайте се!!!

Последни песни



Статистика

Песни: 1411
Потребители: 12754

В момента онлайн:

2 госта