[Всички песни]
[Скрий Акордите]
[Редактирай песента]

Печат
Гама
C : G : D : A : E : B : F# : C# : F : Bb : Eb : Ab : Db : Gb

Батальона


Изпълнител: Южен Вятър

Изпратил: denkata99 

Това е само интрото за китара

e|--------------------------------------------------|
B|-----------3--1--1----1---------------------------|
G|--0--2--3----------3------------------------------|
D|--------------------------------------------------|
A|--------------------------------------------------|
E|--------------------------------------------------|

e|--------------------------------------------------|
B|-----4--4---3--3--1--3-------1--3--3--1--1---1----|
G|--0------------------------3---------------3------|
D|--------------------------------------------------|
A|--------------------------------------------------|
E|--------------------------------------------------|

e|--------------------------------------------------|
B|----1--1------------------------------------------|
G|--0------3--0-------------------------------------|
D|--------------------------------------------------|
A|--------------------------------------------------|
E|--------------------------------------------------|






акорди за китара

акорди за пиано

видео клип


© 2007-2017 akordite.com - Акорди и таблатури на български песни

Вход






Забравена парола
Нямате достъп?
Регистрирайте се!!!

Последни песни



Статистика

Песни: 1411
Потребители: 12529

В момента онлайн:

1 гост и 1 потребител
  • Ronnin