[Всички песни]
[Скрий Акордите]
[Редактирай песента]

Печат
Гама
C : G : D : A : E : B : F# : C# : F : Bb : Eb : Ab : Db : Gb

Цветя от края на 80-те


Изпълнител: Ревю
Текст: Васил Гюров
Музика: Васил Гюров, Кирил Манчев, Бойчо Карабойчев
Албум: IV.88-V.89
Изпратил: egasimus

интро:
(бас)
g |---8-10-8---8---8-|---8-10-8---11---10-|
d |-8--------9-------|-8--------9---------|



(китара)
e |---------------|-/11-----------|
b |---------------|---------------|
g |-8--11---------|---------------|

куплет:
(китара)
g |-8--11---8-----|-8--11---------|-8--11---8-----|-8-------------|
d |------------11-|---------------|------------11-|----8----------|

(бас)
d |-8-8-8-8-8-8-8-8-|-8-11-11-11-11-11-10-10-|

припев:
(китара)
b |-4-----4-----4---|---7---7-7---6---|-4-----4-----4---|---7---7-7-6-6---|
g |-3-----3-----3---|---6---6-6---5---|-3-----3-----3---|---6---6-6-5-5---|

край:
g |-1--3-----------1--|-3------------|-1--3-----------1--|-3------------|
d |-------4--3--4-----|---1----------|-------4--3--4-----|--------------|

В стая, скрита от закона,
чиновник благ реди цветя.
Шепи, тръпнещи в наслада,
пълнят вазата с боза.

И всичко, без да разбере,
че по-добре е да умре.

Горещ е въздухът над нашите градини,
но малко още ще мълчим.
Свикнали сме от години
мрака да търпим.

Благодаря, благодаря,
благодаря за всички цветя.
Благодаря, благодаря,
благодаря за всички цветя!

В квадрати стегнати крила
увяхват бавно по едно
и смисълът от светлина
загива с първото перо.

Във целофан от гъста мрежа
ще пазим нашите деца.
Защото тръните са угоени
специално за целта борба.

Благодаря, благодаря,
благодаря за всички цветя!
Благодаря, благодаря,
благодаря за всички цветя!
Цветя, цветя, цветя
от края на осемдесетте!
Цветя, цветя, цветя
от края на осемдесетте

акорди за китара

акорди за пиано

видео клип


© 2007-2017 akordite.com - Акорди и таблатури на български песни

Вход






Забравена парола
Нямате достъп?
Регистрирайте се!!!

Последни песни



Статистика

Песни: 1411
Потребители: 12549

В момента онлайн:

7 госта